Guitaretab - guitar tabs
Song name
# A B C D E F G H I J K L M N O P Q R S T U V W X Y Z

Fogelberg Dan - Leader Of The Band tab

Song       :  Leader of the Band
Singer     :  Dan Fogelberg
Tabbed by  :  Robert Simon Uy!!!!

----------------------------------------------------------------------------
| ------------------------------------------------------------------------ |
| |                                                                      | |
| |                        RaTe this tab.. hehe..                        | |
| |                 Plsss rate this tab.. coment dn po..                 | |
| |                                                                      | |
| ------------------------------------------------------------------------ |
----------------------------------------------------------------------------

Edit:
completed the song..
deleted some notes
added new tab for guitar w/ a 2 fret higher tune.

Note:
I added this new tab :
1.)because I saw in a video that Dan Fogelberg used G as he's 1rst chord. 
So, I knew that a 2-fret higher guitar is used in playing this 
2.)to make it easier

Tuning : F#C#AEBF#(2 FRETS higher than standard)

  G                           C
|-------------0-------------|---------------0---------|
|---------3-------3---1---0-|-1-------1---3---3-1---0-|
|-0---0---------------------|-----0-------------------|
|-0-0-------0-------0-------|---2---------------------|
|-2-------------------------|-3-----------3-----------|
|-3-----3-------3-------3---|-------3-------------3---|

|-------0--------------------------2---------|
|-1--------1------0--------------3-----------|
|---2--------2--2---2-0--------2-----0h2---0-|
|------------------------2-4-2-----------4---|
|-0-------------0----------------------------|
|-----0--------------------------------------|

       2x                      VERY LOW Volume
<-------------->                 <--------->
|--------3-----|--------3--------------3-----|
|----0-1---1---|----0-1------------0-----0---|
|------------0-|-----------------0---------0-|
|----0-2-------|----0-2---0-2-0------0-------|
|--------------|-----------------------------|
|-3------------|-3---------------------------|

Verse:

|----------3-------3-------3---|-----------2---|-----------0---|
|-----0-1----1-------1-------1-|-------3-----3-|-------------0-|
|---0----------0-------0-------|-----4---------|-------0-------|
|-0-----2--------2-------2-----|---4-----------|-----2---------|
|------------------------------|-2-------------|---2-----------|
|------------------------------|---------2-----|-0-------0-----|

|-----------0----|-----------0---|-----------0---|---------|-----2---|
|-------1-----1--|-------------0-|-------1-----1-|-------1-|---------|
|-----2----------|-------0-------|-----2---------|-----0---|---2---2-|
|---2------------|-2---2---------|---2-----------|---2-----|-0-------|
|-0--------------|---2-----------|-0-------------|-3-------|---------|
|---------0------|---------0-----|---------0-----|---------|---------|

|----------3-------3-------3---|-----------2---|-----------0---|
|-----0-1----1-------1-------1-|-------3-----3-|-------------0-|
|---0----------0-------0-------|-----4---------|-------0-------|
|-0-----2--------2-------2-----|---4-----------|-----2---------|
|------------------------------|-2-------------|---2-----------|
|------------------------------|---------2-----|-0-------0-----|

|-----------0----|-----------0---|---------|-----2---|
|-------1-----1--|-------------0-|-------1-|---------|
|-----2----------|-------0-------|-----2---|---2--(2)|
|---2------------|-2---2---------|---2-----|-0-------|
|-0--------------|---2-----------|-0-------|---------|
|---------0------|---------0-----|---------|---------|

(THEN)
       2x                      VERY LOW Volume
<-------------->                 <--------->
|--------3-----|--------3--------------3-----|
|----0-1---1---|----0-1------------0-----0---|
|------------0-|-----------------0---------0-|
|----0-2-------|----0-2---0-2-0------0-------|
|--------------|-----------------------------|
|-3------------|-3---------------------------|

<----------REPEAT VERSE EXCEPT THIS---------->

(THEN)
  
e|-------------------|
B|-----------0--1--3-|
G|-0-----------------|
D|-------------------|
A|---(2)-(2)-2--3--5-|
E|-------------------|

Chorus:

   C                Bm7              C
e|-0--------0-----|----------2-----|----------0-----|-----------------|
B|----------------|-3----------3---|-1----------1---|---------0--1--3-|
G|------0-------0-|------2-------2-|------0-------0-|-----------------|
D|-2--2-------2---|----4-----------|----2-----------|-----------------|
A|--------3-------|-2------2-------|-3------3-------|-(2)-(2)-2--3--5-|
E|----------------|----------------|----------------|-----------------|

   C                Am7              Em             C         D
e|-0--------0-----|-------0--------|-------0------|---------|-----2---|
B|----------------|-1--------1-----|----------0---|-------1-|---------|
G|------0-------0-|---0--------0---|------------0-|-----0---|---2---2-|
D|-2--2-------2---|-----2----------|-----2--------|---2-----|-0-------|
A|--------3-------|-0--------------|---2----------|-3-------|---------|
E|----------------|----------------|-0------------|---------|---------|

********************not yet done.. plss wait for updates********************

----------------------------------------------------------------------------
----------------------------------------------------------------------------

If you don't want to play this song in a diff. tuning, then use this.......

Tuning : EBGDAE(standard)

*******THOSE INSIDE THE PARENTHESIS() ARE OPTIONAL********
Intro:

   A                          D
e|-0-----------2---0--------|-------------0-2-0--------|
B|-2-------2----------3---2-|-3-------3----------3---2-|
G|-2---2--------------------|-----2--------------------|
D|-2-2-------2----------2---|-0-----0-----0------------|
A|-0-----0-------0----------|---0------------------0---|
E|--------------------------|--------------------------|

   Bm
e|-------2-------------------------------|
B|-3--------3------2---------------------|
G|---4--------4--4---4-2-----------------|
D|------------------------2-4-2--7h9-6-7-|
A|-2-------------2-----------------------|
E|-----2---------------------------------|

       2x                      VERY LOW VOLUME
<--------------->                <--------->
e|--------5-----|--------5-------------5-----|
B|----------5---|------------------------5---|
G|----6-7-----6-|----6-7-----------6-------6-|
D|------7-------|------7---------7-----------|
A|----7---------|----7-----7-9-7-----7-------|
E|-5------------|-5--------------------------|

Verse:

   A                                C#m             F#m
e|----------5-----5-----5-----|-----------4---|-----------2---|
B|-----5------5-----5-----5---|-------5-----5-|-------------2-|
G|---6----------------6-----6-|(6)--6---------|(2)----2-------|
D|----------------------------|---6-----------|-----4---------|
A|-7-----9------7-------7-----|-4-------------|---4-----------|
E|----------------------------|---------4-----|-2-------2-----|

   Bm              F#m             Bm              D         E
e|-----------2---|-----------2---|-----------2---|---------|---------|
B|-------3-----3-|-------------2-|-------3-----3-|-------7-|-----9---|
G|-----4---------|-------2-------|-----4---------|-----7---|-------9-|
D|---4-----------|-4---4---------|---4-----------|---7-----|---9-----|
A|-2-------------|---4-----------|-2-------------|-5-------|-7-------|
E|---------2-----|---------2-----|---------2-----|---------|---------|
[ Tab from: http://www.guitaretab.com/f/fogelberg-dan/6539.html ]
   A                                C#m             F#m
e|----------5-----5-----5-----|-----------4---|-----------2---|
B|-----5------5-----5-----5---|-------5-----5-|-------------2-|
G|---6----------------6-----6-|(6)--6---------|(2)----2-------|
D|----------------------------|---6-----------|-----4---------|
A|-7-----9------7-------7-----|-4-------------|---4-----------|
E|----------------------------|---------4-----|-2-------2-----|

   Bm              F#m             Bm        D
e|-----------2---|-----------2---|---------|-----2---|
B|-------3-----3-|-------------2-|-------3-|---3---3-|
G|-----4---------|-------2-------|-----4---|-2-------|
D|---4-----------|-4---4---------|---4-----|---------|
A|-2-------------|---4-----------|-2-------|---------|
E|---------2-----|---------2-----|---------|---------|

(THEN)
       2x                      VERY LOW VOLUME
<--------------->                <--------->
e|--------5-----|--------5-------------5-----|
B|----------5---|------------------------5---|
G|----6-7-----6-|----6-7-----------6-------6-|
D|------7-------|------7---------7-----------|
A|----7---------|----7-----7-9-7-----7-------|
E|-5------------|-5--------------------------|

<----------REPEAT VERSE EXCEPT THIS---------->

(THEN)
  
e|-----------|
B|-----------|
G|---6--7--9-|
D|-----------|
A|-4-4--5--7-|
E|-----------|

CHORUS:

   D                C#m7             D
e|-2--------2-----|----------4-----|----------2-----|-----------|
B|------3-------3-|-5----------5---|-3----3-----3---|-----------|
G|----2-------2---|------4-------4-|----2---------2-|---6--7--9-|
D|-0------0-------|----6-----------|-0------0-------|
A|----------------|-4------4-------|----------------|-4-4--5--7-|
E|----------------|----------------|----------------|-----------|

   D                Bm7            F#m            D
e|-2--------2-----|-------2------|-------2------|-----2---|-----4---|
B|------3-------3-|-3--------3---|----------2---|---3---3-|---5---5-|
G|----2-------2---|---2--------2-|------------2-|-2-------|-4-------|
D|-0------0-------|-----4--------|-----4--------|---------|---------|
A|----------------|-2------------|---4----------|---------|---------|
E|----------------|--------------|-2------------|---------|---------|

   D                C#m7             D
e|-2--------2-----|----------4-----|----------2-----|-----------|
B|------3-------3-|-5----------5---|-3----3-----3---|-----------|
G|----2-------2---|------4-------4-|----2---------2-|---6--7--9-|
D|-0------0-------|----6-----------|-0------0-------|-----------|
A|----------------|-4------4-------|----------------|-4-4--5--7-|
E|----------------|----------------|----------------|-----------|

   D                Bm7            F#m     E
e|-2--------2-----|-------2------|---2---|---0---|
B|------3-------3-|-3--------3---|-----2-|-----0-|
G|----2-------2---|---2--------2-|-------|-------|
D|-0------0-------|-4------------|-4-----|-2-----|
A|----------------|-----2--------|-------|-------|
E|----------------|--------------|-------|-------|

(THEN)
       2x                      VERY LOW VOLUME
<--------------->                <--------->
e|--------5-----|--------5-------------5-----|
B|----------5---|------------------------5---|
G|----6-7-----6-|----6-7-----------6-------6-|
D|------7-------|------7---------7-----------|
A|----7---------|----7-----7-9-7-----7-------|
E|-5------------|-5--------------------------|
 
------------------
| -------------- |
| |REPEAT VERSE| |
| -------------- |
------------------

(THEN)
       2x
<--------------->
e|--------5-----|
B|----------5---|
G|----6-7-----6-|
D|------7-------|
A|----7---------|
E|-5------------|

------------------
| -------------- |
| |REPEAT INTRO| |
| -------------- |
------------------

------------------
| -------------- |
| |REPEAT VERSE| |
| -------------- |
------------------

(THEN)
  
e|-----------|
B|-----------|
G|---6--7--9-|
D|-----------|
A|-4-4--5--7-|
E|-----------|

LAST CHORUS:

   D                C#m7             Bm7
e|-2--------2-----|----------4-----|---------2-----|-----------|
B|------3-------3-|-5----------5---|-3---------3---|-----------|
G|----2-------2---|------4-------4-|-----2-------2-|---6--7--9-|
D|-0------0-------|----6-----------|---4-----------|-----------|
A|----------------|-4------4-------|-2-----2-------|-4-4--5--7-|
E|----------------|----------------|---------------|-----------|

   D                Bm7            F#m            D
e|-2--------2-----|-------2------|-------2------|-----2---|-----4---|
B|------3-------3-|-3--------3---|----------2---|---3---3-|---5---5-|
G|----2-------2---|---2--------2-|------------2-|-2-------|-4-------|
D|-0------0-------|-----4--------|-----4--------|---------|---------|
A|----------------|-2------------|---4----------|---------|---------|
E|----------------|--------------|-2------------|---------|---------|

   D                C#m7             Bm7
e|-2--------2-----|----------4-----|---------2-----|-----------|
B|------3-------3-|-5----------5---|-3---------3---|-----------|
G|----2-------2---|------4-------4-|-----2-------2-|---6--7--9-|
D|-0------0-------|----6-----------|---4-----------|-----------|
A|----------------|-4------4-------|-2-----2-------|-4-4--5--7-|
E|----------------|----------------|---------------|-----------|

   D                Bm7            F#m     E
e|-2--------2-----|-------2------|---2---|---0---|-------------0-|
B|------3-------3-|-3--------3---|-----2-|-----0-|-----2---3-----|
G|----2-------2---|---2--------2-|-------|-------|---------------|
D|-0------0-------|-4------------|-4-----|-2-----|---2---2---2---|
A|----------------|-----2--------|-------|-------|-0-------------|
E|----------------|--------------|-------|-------|---------------|

   D                Bm7            F#m            E
e|-2--------2-----|-------2------|-------2------|---0-----0-----|
B|------3-------3-|-3--------3---|---2------2---|-----0-----0---|
G|----2-------2---|---2--------2-|-----2------2-|-------------1-|
D|-0------0-------|-4------------|-4------------|-2-----2-------|
A|----------------|-----2--------|--------------|---------------|
E|----------------|--------------|--------------|---------------|

(THEN)
       2x
<--------------->
e|--------5-----|--------5-------|
B|----------5---|----------------|
G|----6-7-----6-|----6-7---------|
D|------7-------|------7---------|
A|----7---------|----7-----7-9-7-|
E|-5------------|-5--------------|

OUTRO:

   A                          D
e|-0-----------2---0--------|-------------0-2-0--------|
B|-2-------2----------3---2-|-3-------3----------3---2-|
G|-2---2--------------------|-----2--------------------|
D|-2-2-------2----------2---|-0-----0-----0------------|
A|-0-----0-------0----------|---0------------------0---|
E|--------------------------|--------------------------|

   Bm
e|-------2---------------------------------------|
B|-3--------3------2-----------------------------|
G|---4--------4--4---4-2-------------------------|
D|------------------------2-4-2--7h9-6-7---------|
A|-2-------------2------------------------+12----|
E|-----2-------------------------------------+12-|

------------------------------------EnD-------------------------------------
| ------------------------------------------------------------------------ |
| |                    RaTe     nYo     pOh     ito...                   | |
| |                     Hi  to  all  Naguenian!!!!..                     | |
| ------------------------------------------------------------------------ |
----------------------------------------------------------------------------
         ©Copyright2007©       Robert Simon Uy™        ®Registered®
Related for Leader Of The Band tab
Leader Of The Band chords by Fogelberg Dan