Song name
# A B C D E F G H I J K L M N O P Q R S T U V W X Y Z

Fogerty John - Dream Song tab

   ********************************
   * Scott Matthews - Dream Song. *
   ********************************

Tabbed by: Banjo

Email: benh2@hotmail.com

*Thanks to coreyvdh for his youtube video which made this tab possible.
I recommend you watch it as it is played perfectly.
Found @ http://www.youtube.com/watch?v=MY9WbQY-E0Q&feature=related

Enjoy =)

Tuning: DADGBD - Capo on 3rd fret.

| /  slide up
| \  slide down
| h  hammer-on
| p  pull-off
| ~  vibrato
| b  bend

Intro:

D |-------12---------0--------0--------0--------0--------0-----------------0----|
B |-10--------8--------7------------5----3--------1--------------1-------1------|
G |---11--------9--------7--------5--------4--------2----------2---2---2--------|
D |-----0---------0--------0----0------------0--------0------0-------0----------|
A |-----------------------------------------------------------------------------|
D |-0---------0--------0-----------------0--------0-----------------------------|

D |-------0---------0--------0--------0--------0--------0-----------------------|
B |-10--------8--------7------------5----3--------1-----------------------------|
G |---11--------9--------7--------5--------4--------2-----2p1p0---0-------------|
D |-----0---------0--------0----0------------0--------0---------3---3p2p0---0---|
A |-----------------------------------------------------------------------3-----|
D |-0---------0--------0-----------------0--------0-----------------------------|

D |-------0---------0--------0--------0----0----|
B |-10--------8--------7--------5----------3----|
G |---11--------9--------7--------5--------4----|
D |-----0---------0--------0--------0------0----|
A |----------------------------------------0----|
D |-0---------0--------0--------0----------0----|

Part 1 (chorus) chords:
(Listen to song for strumming pattern)

D |-0---0---0---0-----|
B |-3---3---3---3-----|
G |-0---0---0---0-----|
D |-3---3---0---0h3---|
A |-1---1---1---1-----|
D |-------------------|

Part 2 chords:
(bit of sliding here, again listen to song for strumming pattern)

D |-9-\-4-/-5-/-7-\-2-/-9-\-4-/-5--5/7\4--4/5\2--2------|
B |-0---0---0---0---0---0---0---0--0------0------0--0---|
G |-0---0---0---0---0---0---0---0--0------0------0--0---|
D |-9-\-4-/-5-/-7-\-2-/-9-\-4-/-5--5/7\4--4/5\2--2--0---|
A |-0---0---0---0---0---0---0---0---------0------0--3---|
D |-------------------------------------------------0---|

Verse 1 chords:
(Listen to song for strumming pattern)

D |-0----0----0----0----0----0----0----0-0---|
B |-3----3----3----3----3----3----3----3-3---|
G |-2----2----2----2----2----2----2----2-2---|
D |-0----0----0----0----0----0----0----0-0---|
A |-0----0h3~ 0----0h3~ 0----0h3~ 0----1-3---|
D |-0----0----0----0----0----0----0----0-0---|
	
D |-0----0----0----0----0----0----0----0---|
B |-3----3----3----3----3----3----3----3---|
G |-2----2----2----2----2----2----2----2---|
D |-0----0----0----0----0----0----0----0---|
A |-0----0h3~ 0----0h3~ 0----0h3~ 0----0---|
D |-0----0----0----0----0----0----0----0---|

Verse 2 chords:
(Listen to song for strumming pattern)

D |-0----0----0----0----0-------|
B |-3----3----1----3----3-------|
G |-2----2----3----2----0-------|
D |-0----0----3----4----0-------|
A |-0----0h3--0----0----1-------|
D |-0----0----0----0----0--3bp0-|

D |-0----0----0----0----0----|
B |-3----3----1----3----1----|
G |-2----2----3----2----3----|
D |-0----0----3----4----3----|
A |-0----0h3--0----0----0----|
D |-0----0----0----0----0----|

Part 3 chords:
(Listen to song for strumming pattern)

D |-0----0----0----0----|
B |-5----3----3----6----|
G |-0----0----0----0----|  x3
D |-5----3----3----5----|
A |-3----1----1----3----|
D |------1---------3----|

D |-0----0----0----0-0---|
B |-5----3----3----3-3---|
G |-0----0----0----0-0---|
D |-5----3----3----3-3---|
A |-3----1----1----1-0---|
D |------1-----------3bp0|

Part 4 chords:
(Listen to song for strumming pattern. Its a lot faster/heavier here)

D |-0----0----0----0----0----|
B |-3----3----3----3----3----|
G |-2----2p0--0h2--0----0----|
D |-0----0----0----0----0----|
A |-0----0----0----2h3--0----|
D |-0----0----0----0----3bp0-|

Ending:

D |-0----0----0----0---------|
B |-5----3----1-----2--------|
G |-0----0----0------0-------|
D |-5----3----2-------4------|
A |-0----0----0--------0-----|
D |-0----0----0---------0----|


Song sequence:

*Intro
*Part 1 (chorus)
*Part 2
*Verse 1

I wander hopelessly trying to think about me
But I'm trying to forget the things that dwell on me
Sitting on a horse to the wind and sit in my comfortable tree
Mesmerized by the beautiful sky sit thinking where I wanna be

*Part 1 (chorus)

I'm gonna sleep with the peaceful moon again until the sun bleeds through my eyes
I'm gonna wait until the morning comes to wipe the sleep out from eyes yeah

*Part 2
*Verse 2

Not a soul to be heard a sound so sweet
A pin hit the ground I feel the energy through me feet
catch a falling leaf from its journey to the ground
I think I found my saving grace dead silence all around

*Part 1 (chorus)

I'm gonna sleep with the peaceful moon again until the sun bleeds through my eyes
I'm gonna wait until the morning comes to wipe the sleep out from eyes

*Part 3
*Part 4
*Verse 1

I sit and dream I lie and wait
I see how long it takes till the level might fade
Grab all the that you can hold and just follow the tree home
They're saying that I'm picking up fares my dreams will purvey on

*Part 1 (chorus)

I'm gonna sleep with the peaceful moon again until the sun bleeds through my eyes
I'm gonna wait until the morning comes to wipe the sleep out from eyes

*Intro
*Part 1 (chorus)
*Part 3 (a variation of, he uses the below chord as well)

D |-0--|
B |-10-|
G |-0--|
D |-10-|
A |-8--|
D |-0--|

*Ending
Tap to rate this tab
# A B C D E F G H I J K L M N O P Q R S T U V W X Y Z