Song name
# A B C D E F G H I J K L M N O P Q R S T U V W X Y Z

Foghat - Fool For The City tab

-------------------------------------------------------------------------------
			     Fool For The City - Foghat
-------------------------------------------------------------------------------
Tabbed by:R8:31b

Explanation for notations at the bottom, and other thing, it's a long 
one.....thats what she said........

Guitars:
Gtr.   I: Elec. w/Dist. [Two guitars Arr. for one; Doubled by Gtr. III]
Gtr.  II: Acoustic
Gtr. III: Elec. w/Dist. & Reverb
Gtr.  IV: Elec. w/Dist.
Gtr.   V: Elec. w/Dist.
Gtr.  VI: Elec. w/Dist. [Solo]

Tuning:Standard 

Intro 
Gtr. I, II
e|------|---------|------------------|--------------|--------------|
B|--9-9-|-9~~~~~~~\-----5---5----2-2-|-2------------|-----0--------|
G|--9-9-|-9~~~~~~~\-----5---5----2-2-|-2------------|---2----------|
D|--9-9-|-9~~~~~~~\-x---5---5--x-2-2-|-2------------|-0------------|
A|--7-7-|-7~~~~~~~\-x---3---3--x-0-0-|-0------------|-------2------|
E|------|---------|------------------|--------------|-------0------|
                    P.M.      P.M.
e|------|---------|------------------|--------------|--------------|
B|--9-9-|-9~~~~~~~\-----5---5----2-2-|-2------------|-----0--------|
G|--9-9-|-9~~~~~~~\-----5---5----2-2-|-2------------|---2----------|
D|--9-9-|-9~~~~~~~\-x---5---5--x-2-2-|-2------------|-0------------|
A|--7-7-|-7~~~~~~~\-x---3---3--x-0-0-|-0------------|-------2------|
E|------|---------|------------------|--------------|-------0------|
                    P.M.      P.M.

Verses  (0:14, 0:55)
Gtr. III
e|-------------------|------------------|-------------------|-------------------|
B|-------------------|------------------|-------------------|-------------------|
G|-------------------|------------------|-------------------|-------------------|
D|-9-9-11---9---11-9-|--9-11---9---11-7-|-9-9-11---9---11-9-|--9-11---9---11-7--|
A|-7-7-7--7-7-7-7--7-|--7-7--7-7-7-7--7-|-7-7-7--7-7-7-7--7-|--7-7--7-7-7-7--7--|
E|-------------------|------------------|-------------------|-------------------|
 |Gtr.I            Gtr.I,II            Gtr.I              Gtr.I,II
e|-------------------|------------------|-------------------|-------------------|
B|-------------------|------------------|-------------------|-------------------|
G|-----------------9-|--9----9---9------|-----------------9-|--9----9---9-------|
D|-----------------9-|--9----9---9------|-----------------9-|--9----9---9-------|
A|-P.M.__________--7-|--7----7---7------|-P.M.__________--7-|--7----7---7-------|
E|-x---x---x---x-----|------------------|-x---x---x---x-----|-------------------|

Gtr. III
e|-------------------|------------------|-------------------|-------------------|
B|-------------------|------------------|-------------------|-------------------|
G|-------------------|------------------|-------------------|-------------------|
D|-9-9-11---9---11-9-|--9-11---9---11-7-|-9-9-11-9-9-9-11-9-|--9-9--------------|
A|-7-7-7--7-7-7-7--7-|--7-7--7-7-7-7--7-|-7-7-7--7-7-7-7--7-|--7-7----x-7-7-----|
E|-------------------|------------------|-------------------|-------------------|
 |Gtr.I            Gtr.I,II            
e|-------------------|------------------|-----------------9-|--9----9-----------|
B|-------------------|------------------|----------------10-|-10---10p9-----7-7-|
G|-----------------9-|--9----9---9------|-P.M.__________--9-|--9----9p9-----7-7-|
D|-----------------9-|--9----9---9------|-x---x---x---x--11-|-11---11p9---x-7-7-|
A|-P.M.__________--7-|--7----7---7------|-------------------|-------------x-5-5-|
E|-x---x---x---x-----|------------------|-------------------|-------------------|

pre-Chorus (0:28, 1:09)
Gtr. I,II
e|-------------------|------------------|-----------------7-|--7-7-7--7---------|
B|-7-----------------|------------------|-----------------7-|--7-7-7--7---------|
G|-7-------------6-6-|-6------------4-4-|-4-----4----P.M.-9-|--9-9-8--8---------|
D|-7-------------7-7-|-7-------P.M.-5-5-|-5-----5-----x---9-|--9-9-9--9---x--0--|
A|-5--------P.M.-7-7-|-7--------x---5-5-|-5-----5-----------|-------------x--0--|
E|-----------x---5-5-|-5--------x---3-3-|-3-----3-----------|-------------------|

Chorus (0:35, 1:16, 3:14)
e|-------------------|------------------|-------------------|--------------------|
B|-----9-------9~~~~~\--5---5---5-5-2-2-|-2-----2-----------|-----0-0-0------9-9-|
G|-----9-------9~~~~~\--5---5---5-5-2-2-|-2-----2-----------|---2------------9-9-|
D|-9---9---9---9~~~~~\x-5---5---5-5-2-2-|-2-----2-----------|-0-0-------P.M.-9-9-|
A|-7---7---7---7~~~~~\x-3---3---3-3-0-0-|-0-----0------0--0-|-0----------x---7-7-|
E|-0-------0---------|------------------|-------------------|-------0-0--x-------|

e|-------------------|------------------|-------------------|--------------------|
B|-9---9-------9~~~~~\--5---5-------2-2-|-2-----2----2----2-|-----0-0-0----------|
G|-9---9-------9~~~~~\--5---5--P.M.-2-2-|-2-----2----2----2-|---2----------------|
D|-9---9-------9~~~~~\x-5---5----x--2-2-|-2-----2----2----2-|-0-0----------P.M.--|
A|-7---7-------7~~~~~\x-3---3----x--0-0-|-0-----0----0----0-|-0--------------x---|
E|-------------------|------------------|-------------------|-------0-0------x---|

I Don't Know what to Call this section, @ (0:49)
  Gtr. IV
e|-------------------------|-----------|--Hold Bend------------------------|--------||
B|-------------------------|-----------|-15_15_15_15-12--12h15p12--12------|--------||
G|-14fbr14p12--12h14-12b13-|-----------|---------------14--------14--14p12-|-------o||
D|-----------14------------|-----------|-----------------------------------|--------||
A|-------------------------|-----------|-----------------------------------|-------o||
E|-------------------------|-----------|-----------------------------------|--------||
 |Gtr. V 
e|-------------------------|-----------|--Hold Bend------------------------|--------||
B|-------------------------|-----------|-11_11_11_11-9---9h11p9----9-------|--------||
G|-11fbr11p9---9h11---9b---|-----------|---------------11-------11---11p9--|-------o||
D|----------11-------------|-----------|-----------------------------------|--------||
A|-------------------------|-----------|-----------------------------------|-------o||
E|-------------------------|-----------|-----------------------------------|--------||
 |Gtr. I,II
e|-------------------------|-----------|-----------------------------------|--------||
B|-----------------------9-|-9---9---9-|-----------------------------------|-7-7--9-||
G|-----------------------9-|-9---9---9-|-----------------------------------|-7-7--9-o|
D|-----------------------9-|-9---9---9-|-----------------------------------|-7-7--9-||
A|-P.M.________________--7-|-7---7---7-|--P.M._____________________----0---|-5-5--7-o|
E|---x--x-------x-----x----|-----------|--x---x---------x----x----x--------|--------||

1st. Bridge (1:30)
Gtr. I,II
e|-------------------|------------------|-------------------|-------7---7----------|
B|-------------------|------------------|-------------------|-----------7----------|
G|-9-----------------|------6---6---6---|-9-----------------|-9p8-------------9----|
D|-9-----------------|------7---7---7---|-9-----------------|-----9-----------9----|
A|-9-----------------|--x---7---7---7---|-9--------P.M.__---|-----------------9----|
E|-7-----------------|--x---5---5---5---|-7----------x--x---|--------------x--7----|
 
Gtr. III
 /_1.___________________________________|_2._____________________
e|--7~~~~~~~~~~~~~~7~|~~~~~~~7~~~7~~~7~~||-------------------|--------------------|
B|--7~~~~~~~~~~~~7~~~|~7-7~~~7~~~7~~~7~~||-------------------|--------------------|
G|-------------------|------------------o|-------------------|--------------------|
D|-------------------|------------------||-------------------|--------------------|
A|-------------------|------------------o|-------------------|--------------------|
E|-------------------|------------------||-7-----------7-7-7-|---7-7-0----0-0-0---|
 |Gtr. I,II
e|-------------------|------------------||-------------------|--------------------|
B|-------------------|------------------||-------------------|--------------------|
G|--9----------------|-------1-----9--9-o|-9-----------------|--------------------|
D|--9----------------|-------2-----9--9-||-9---------------9vvvvv-----------------|
A|--9----------------|-------2-----9--9-o|-9-----------------|---11--9--7vvvvvv---|
E|--7----------------|----x--0--x--7--7-||-7------------x----|--------------------|

                                         Interlude (1:53) In a Half-Time Feel
Gtr. III                                 Gtr. II
e|-------------------|------------------|-------------------|------------------|
B|-------------------|------------------|-------------------|-0--0-------------|
G|-------------------|------------------|--------------0--1-|-----0--1---------|
D|-------------------|------------------|----2--------------|---------2--2-----|
A|-------------------|------------------|------4--2---------|-------------4--2-|
E|--0--0--0--0--0----|------------------|--0----------------|------------------|

Gtr. IV
e|-------------------|------------------|-------------------|------------------|
B|-------------------|----------0-------|-------------------|------------------|
G|------------x--4b_____4---------2-4---|-2----4b-----------|------------------|
D|-------------------|----------------4-|-----------------0-|------0---0-------|
A|-------------------|------------------|-------------------|--0h2-------3-2fb-|
E|-------------------|------------------|-------------------|------------------|
 | Gtr. V
e|-------------------|------------------|-------------------|------------------|
B|-------------------|------------------|-------------------|------------------|
G|-------------------|-0----------------|-------------------|----------0---0-4-|
D|-------------------|-0----0-2-0-2-0-2-|-2vvvv-----2-------|-4b--2-0--0-2-0-2-|
A|-------------------|------------------|--------/4---4--2--|------------------|
E|-------------------|------------------|-------------------|------------------|
 | Gtr. II
e|-------------------|------------------|-------------------|------------------|
B|-------------------|-0--0-------------|-------------------|-0--0-------------|
G|--------------0--1-|-----0--1---------|--------------0--1-|-----0--1---------|
D|---2---------------|---------2--2-----|---2---------------|---------2--2-----|
A|-----4--2----------|-------------4--2-|-----4--2----------|-------------4--2-|
E|-0-----------------|------------------|-0-----------------|------------------|

Gtr. IV                                  Gtr. IV,V
e|--------------------------------------|--------------------------------------|
B|--------3----3----3----3----3----3----|-3----3----3----3----3----------------|
G|--------------------------------------|--------------------------------------|
D|--------------------------------------|--------------------------2-----------|
A|--------------------------------------|------5\\\\4----2---------------------|
E|--------------------------------------|---------------------3----3----3b=p=0-|
 | Gtr. V
e|--------------------------------------|--------------------------------------|
B|--------------------------------------|--------------------------------------|
G|--------------------------------------|--------------------------------------|
D|----x---2----x----2-------------------|--------------------------------------|
A|-----------------------4==p=2----5----|--------------------------------------|
E|--------------------------------------|--------------------------------------|
 | Gtr. II
e|--------------------------------------|--------------------------------------|
B|--------------------------------------|--------------------------------------|
G|--------------------------------------|--------------------------------------|
D|-------------2------------------------|-0------------------------------------|
A|------------------4----2--------------|--------------------------------------|
E|--0-----0-------------------3b----0---|------0----3----3b---0--------3----3b-|

Guitar Solo (2:07) end of Half-Time feel (Gtr. I,II Play Verse underneath) 
Gtr.VI
e|-------------------|------------------------|----------------|----------------|
B|-------------------|-----fb----fb-----------|----------------|-----------5-7--|
G|--2fbr2fb----------|-2-[2][2][2][2]-2fbr2p0-|----------------|-------4-6------|
D|-------------------|------------------------|-2p0----2-2vvvv-|---5-5----------|
A|-------------------|------------------------|----------------|-/7-------------|
E|-------------------|------------------------|----3p0---------|----------------|

e--------7---7-------|-----------------------|---------------------------------------|
B|-7fb----7fb-7-5vvv-|-5h7p5--5-7-7br7p5---5-|--5fb-x-7-7fb-x-8--8=fb-x-12-12fb-x-12-|
G|-------------------|-------5-----------0---|--7fb-x-9-9fb-x-10-10fb-x-10-10fb-x-14-|
D|-------------------|-----------------------|---------------------------------------|
A|-------------------|-----------------------|---------------------------------------|
E|-------------------|-----------------------|---------------------------------------|

e|------------------------------------|--------------------------|-------------------|
B|-12fb-x-14-14fb-x-15-15fb-x-17-17fb-|-15fb--15-15fb-15-15fb-15-|-15fb-15fb---------|
G|-14fb-x-16-16fb-x-17-17fb-x-19-19fb-|--------------------------|-------------------|
D|------------------------------------|--------------------------|------------0--0---|
A|------------------------------------|--------------------------|-------------------|
E|------------------------------------|--------------------------|-------------------|

e|-15fb-15-15fb-15-15fb-15-15fb-17fb-|-17fbvvvvv----15-17-|-17fb--17-15-17-17fb-|---------15-17-|
B|-----------------------------------|-----------17-------|---------------------|--------17-----|
G|-----------------------------------|--------------------|---------------------|-------0-------|
D|-----------------------------------|--------------------|---------------------|---------------|
A|-----------------------------------|--------------------|---------------------|---------------|
E|-----------------------------------|--------------------|---------------------|---------------|

e|-17fb---17-15-------|----------------------------x--|-15p12-12vvvv12----12-14-|
B|--------------17fb_________________17fbr17fbr17-----|----------------15-------|
G|--------------------|-------------------------------|-------------------------|
D|--------------------|-------------------------------|-------------------------|
A|--------------------|-------------------------------|-------------------------|
E|--------------------|-------------------------------|-------------------------|

e|-14/15--14-15/17-15-15-|-22fb--22fb__22__22_22_22-|-22fb_22rb22fbvvv--|
B|-----------------------|--------------------------|-------------------|end solo
G|-----------------------|--------------------------|-------------------|
D|-----------------------|--------------------------|-------------------|
A|-----------------------|--------------------------|-------------------|
E|-----------------------|--------------------------|-------------------|

2nd Bridge (2:41)
Gtr. I,II
e|------------------|---------------------|---------------------|
B|------------------|---------------------|---------------------|
G|-8----------------|-----6--6--6-----8-8-|-8---------0---------|
D|-9----------------|-----7--7--7-----9-9-|-9-------------------|
A|-9----------------|--x--7--7--7-----9-9-|-9-------------------|
E|-7----------------|--x--5--5--5--x--7-7-|-7-------------------|

e|--------7-7-7-----|---------------------|---------------------|
B|--------7-7-7-----|---------------------|---------------------|
G|-9--8---------8-8-|-8-------------------|---------------------|
D|------9-------9-9-|-9-----------------9vvvvvv-----------------|
A|--------------9-9-|-9-------------------|----11--9--7vvvvvv---|
E|--------------7-7-|-7-------------------|---------------------|

3rd verse (2:52) w/ Half-Time Feel
Gtr. III           (sorry if this section is hard too read, this was the only way it would fit D:)
e|------------------------|-----------------------|-----------------------|-----------------------|
B|------------------------|-----------------------|-----------------------|-----------------------|
G|13-13-13-13-13--13-13-13|13-13-13-13-13-13-13-12\13-13-13-13-13-13-13-13|13-13-13-13-13-13-13-12\
D|12-12-12-12-12--12-12-12|12-12-12-12-12-12-12-11\12-12-12-12-12-12-12-12|12-12-12-12-12-12-12-11\
A|------------------------|-----------------------|-----------------------|-----------------------|
E|------------------------|-----------------------|-----------------------|-----------------------|
 |
e|------------------------|-----------------------|-----------------------|-----------------------|
B|------------------------|-----------------------|-----------------------|-----------------------|
G|---------0h1----0h1-----|-----------------------|----------1---1--------|-----------------------|
D|---------0------0-------|-----------2-----2-----|--2-------2---2--------|--0-----0--------------|
A|-----4------------------|-----4-----------------|--2--------------------|-----4-----4---2-------|
E|-0-0--------------------|--0-----0-----0--------|-----0--0--------------|-----------------3b--2-|
 |
e|------------------------|-----------------------|-----------------------|-----------------------|
B|------------------------|-------------------0---|-----------------------|-----------------------|
G|---------0h1----0-------|--1--------1h2---------|-----------------------|-----------------------|
D|---------0------0---2---|----2------0h2---------|-----4b---2--2--2------|--9--7-----------------|
A|----4-------------------|------2--------2-------|-----------------------|-------9b-7------------|
E|-0----0-----------------|-----------------------|-----------------------|------------9\\\\\-----|


e|------------------------|-----------------------|-----------------------|-----------------------|
B|------------------------|-----------------------|-----------------------|---------------15------|
G|13-13-13-13-13--13-13-13|13-13-13-13-13-13-13-12\13-13-13-13-13-13-13-13|13-13-13-12/13-13-13-12\
D|12-12-12-12-12--12-12-12|12-12-12-12-12-12-12-11\12-12-12-12-12-12-12-12|12-12-12-11/12-12-12-11\
A|------------------------|-----------------------|-----------------------|-----------------------|
E|------------------------|-----------------------|-----------------------|-----------------------|
 |
e|------------------------|-----------------------|-----------------------|-----------------------|
B|------------------------|-----------------------|-----------------------|-----------------------|
G|-------------1----0-----|-----------------------|-----------1--1--------|-----------------------|
D|-------------0----0h2---|--------4--4-----------|-------4---2--2---0----|---0-------------------|
A|------------------------|-----------------------|-------4---------------|------4--2-------------|
E|--0--0--3b-0------------|-------------0--3bp=0--|--0--0--0--------------|------------3b--0------|
 |
e|------------------------|-----------------------|-----------------------|-----------------------|
B|------------------------|-----------------------|-----------------------|-----------------------|
G|-------------0h1---0----|--1-------1---------4\\\\----------------------|-----------------------|
D|-------------------0h2--|-----2-------2---------|----0---x-----0---2----|-4b-4--2------------2vv|
A|---------4--------------|--------2-------2------|-----------4---------2-|----------4------------|
E|--0--------0------------|-----------------------|--x--------------------|-------------3b-0-3b---|

3rd Pre-Chorus (3:05)  end of half-time feel
 Gtr. I,II
e|----------------|-----------------|---------------7-|-7-7-7-7-7-7-7-7-|-7-7-7-7-7-7-7---|
B|----------------|-----------------|---------------7-|-7-7-7-7-7-7-7-7-|-7-7-7-7-7-7-7---|
G|-7--7-7-7-7-7---|-----------------|---------------9-|-9-9-9-9-9-9-9-8-|-8-8-8-8-8-8-8---|
D|-7--7-7-7-7-7---|-7-7-7-7-7-7-7-0-|-5-5-5-5-5-5---9-|-9-9-9-9-9-9-9-9-|-9-9-9-9-9-9-9---|
A|-5--5-5-5-5-5-0-|-7-7-7-7-7-7-7-0-|-5-5-5-5-5-5-x---|-----------------|-----------------|
E|----------------|-5-5-5-5-5-5-5---|-3-3-3-3-3-3-x---|-----------------|---------------0-|

Outro Chorus (3:27)
 Gtr. I,II
e|---------------|-------------|----------------|----------------------||
B|------9------9\\---5-5-----5-|-2-2-2--2-2-2---|---3-----------9-9----||
G|------9------9\\---5-5-----5-|-2-2-2--2-2-2---|-2-2-----------9-9----o|
D|------9--9-9-9\\---5-5-----5-|-2-2-2--2-2-2---|-0-0---2-------9-9----||
A|--7-7-7--7-7-7\\---3-3-----3-|-0-0-0--0-0-0-0-|-0-0-0-2-----0-7-7----o|
E|--0-0----0-0-0-|-0------0----|----------------|-----0-0---0-0--------||

Gtr. III 
e|---------------|-------------|----------------|-12-12-12-12-12-/12-12-12|
B|---------------|-------------|----------------|-x--x--x--x--x---x--x--x-|
G|---------------|-------------|----------------|-9--9--9--9--9--/9--9--9-|
D|---------------|-------------|----------------|-------------------------|
A|---------------|-------------|----------------|-------------------------|
E|---------------|-------------|----------------|-------------------------|
 | Gtr. I,II
e|---------------|-------------|----------------|----------------------|
B|------9------9\\---5-5-----5-|-2-2-2--2-2-2---|---3-----------9-9----|
G|------9------9\\---5-5-----5-|-2-2-2--2-2-2---|-2-2-----------9-9----|
D|------9--9-9-9\\---5-5-----5-|-2-2-2--2-2-2---|-0-0---2-------9-9----|
A|--7-7-7--7-7-7\\---3-3-----3-|-0-0-0--0-0-0-0-|-0-0-0-2-----0-7-7----|
E|--0-0----0-0-0-|-0------0----|----------------|-----0-0---0-0--------|

 Gtr. III
e|/12-12-12-12/12-12-12/12-12|---------------------------|--------------------|
B|-x--x--x--x--x--x--x--x--x-|-repeat this staff---------|--------------------|
G|/9--9--9--9-/9--9--9-/9--9-|------<=====---------------|--------------------|
D|---------------------------|--------For the number of--|--------------------|
A|---------------------------|----------Bars shown below-|--------------------|
E|---------------------------|---------------------------|--------------------|
 |Gtr. I,II
e|----------------|--------------------|------------------|-------------------|
B|-9---9------9\5-|-5-5-5-5-5--5-5---2-|-2-2--2---2-2-2-2-|-7-7---9--9-9--9-9-|
G|-9---9------9\5-|-5-5-5-5-5--5-5-x-2-|-2-2--2---2-2-2-2-|-7-7---9--9-9--9-9-|
D|-9-9-9------9\5-|-5-5-5-5-5--5-5-x-2-|-2-2--2---2-2-2-2-|-7-7---9--9-9--9-9-|
A|-7-7-7--7-7-7\3-|-3-3-3-3-3--3-3-x-0-|-0-0--0---0-0-0-0-|-5-5-0-7--7-7--7-7-|
E|---0----0-0-----|-3-3-3-3-3--3-3-----|------------------|-------------------|

 Gtr.III
e|-12/15-15-15/17-17-17-18-18-19-19|-17/19-19-19-19-19-/19-19|-18-19-19-19/19--19-19---19-|
B|-x--x--x--x--x--x--x--x--x--x--x-|-x--x--x--x--x--x---x--x-|-x--x--x-----x------x-------|
G|-9-/12-12-12/14-14-14-15-15-16-16|-14/16-16-16-16-16-/16-16|-15-16-16---/16-16--16-16---|
D|---------------------------------|-------------------------|----------------------------|
A|---------------------------------|-------------------------|----------------------------|
E|---------------------------------|-------------------------|----------------------------|
Gtr. III Cont.
e|/19-19-19/19--19/19-/19----|
B|-x--x--x--x------x---x-(0)-|  <--- these four bars are meant to be 
G|/16-16-16/16----/16-/16----|         Right over the four beneath them.
D|-------------------(0)-----|
A|---------------------------|
E|---------------------------|
 |Gtr. I,II
e|----------------|--------------------|------------------|-------------------|
B|-9---9------9\5-|-5-5-5-5-5--5-5---2-|-2-2--2---2-2-2-2-|-7-7---9--9-9--9-9-|
G|-9---9------9\5-|-5-5-5-5-5--5-5-x-2-|-2-2--2---2-2-2-2-|-7-7---9--9-9--9-9-|
D|-9-9-9------9\5-|-5-5-5-5-5--5-5-x-2-|-2-2--2---2-2-2-2-|-7-7---9--9-9--9-9-|
A|-7-7-7--7-7-7\3-|-3-3-3-3-3--3-3-x-0-|-0-0--0---0-0-0-0-|-5-5-0-7--7-7--7-7-|
E|---0----0-0-----|-3-3-3-3-3--3-3-----|------------------|-------------------|

 Gtr. III
e|-15p12-15p12-15p12-15p12-15p12-15p12-15p12-15p12-15p12-15p12-15p12|---<===--------|
B|-----12----12----12----12-----12-|-12----12----12----12----12-----|--Repeat this--|
G|---------------------------------|--------------------------------|--for 4 more---|
D|---------------------------------|--------------------------------|--bars --------|
A|---------------------------------|--------------------------------|---------------|
E|---------------------------------|--------------------------------|---------------|
 |Gtr. I,II
e|----------------|--------------------|------------------|-------------------|
B|-9---9------9\5-|-5-5-5-5-5--5-5---2-|-2-2--2---2-2-2-2-|-7-7---9--9-9--9-9-|
G|-9---9------9\5-|-5-5-5-5-5--5-5-x-2-|-2-2--2---2-2-2-2-|-7-7---9--9-9--9-9-|
D|-9-9-9------9\5-|-5-5-5-5-5--5-5-x-2-|-2-2--2---2-2-2-2-|-7-7---9--9-9--9-9-|
A|-7-7-7--7-7-7\3-|-3-3-3-3-3--3-3-x-0-|-0-0--0---0-0-0-0-|-5-5-0-7--7-7--7-7-|
E|---0----0-0-----|-3-3-3-3-3--3-3-----|------------------|-------------------|

Gtr. III
e|-15p12-15p12-15p12-15p12-15p12|-15fb__________15r15-----------------------------------|
B|-----12----12----12----12-----|-------------------|-12vvv12vvv12h15-15-15-15/17-17-17-|
G|------------------------------|-------------------|-----------------------------------|
D|------------------------------|-------------------|-----------------------------------|
A|------------------------------|-------------------|-----------------------------------|
E|------------------------------|-------------------|-----------------------------------|
 |Gtr. I,II
e|------------------------------|-------------------|-----------------------------------|
B|-2---2----2----2---2---2---2--|-7-7---9--9-9--9-9-|-9-----9---------------9\\\\\\\\\5-|
G|-2---2----2----2---2---2---2--|-7-7---9--9-9--9-9-|-9-----9---------------9\\\\\\\\\5-|
D|-2---2----2----2---2---2---2--|-7-7---9--9-9--9-9-|-9-----9---------------9\\\\\\\\\5-|
A|-0---0----0----0---0---0---0--|-5-5-0-7--7-7--7-7-|-7--7--7---7--7--------7\\\\\\\\\3-|
E|------------------------------|-------------------|----0------0--0--------------------|

Gtr. III
e|-----------------------------------------|-22--22----22----|-----22----22-----22---------|
B|-17/19-19-19/20-20-20-20/22-22-22-22-22fb|--22fb-22fb-22fb-|-22fb-22fb--22fb____22__br22-|
G|-----------------------------------------|-----------------|-----------------------------|
D|-----------------------------------------|-----------------|-----------------------------|
A|-----------------------------------------|-----------------|-----------------------------|
E|-----------------------------------------|-----------------|-----------------------------|
 |Gtr. I,II
e|-----------------------------------------|-----------------|-----------------------------|
B|--5----5----5----5----5----5----5-----2--|-2-2-2--2--2-2-2-|-7-7----9-----9--9----9--9---|
G|--5----5----5----5----5----5----5--x--2--|-2-2-2--2--2-2-2-|-7-7----9-----9--9----9--9---|
D|--5----5----5----5----5----5----5--x--2--|-2-2-2--2--2-2-2-|-7-7----9-----9--9----9--9---|
A|--3----3----3----5----3----3----3--x--0--|-0-0-0--0--0-0-0-|-5-5-0--7-----7--7----7--7---|
E|--3----3----3----3----3----3----3--------|-----------------|-----------------------------|

Fin

************************************


|-||
|-||
|-o|  Means
|-||    Repeat
|-o|
|-||
|
|[x]  Artificial Harmonic
| /   slide up
| \   slide down
| ~   Hold note
| h   hammer-on
| p   pull-off
| v   vibrato
| +   harmonic
| x   Mute note
| b   Bend
| fb  Full Bend
| b____ Hold bend
| pb  Pre-bend
| br  Bend release
| pbr Pre-bend release
| brb Bend release bend

************************************
Tap to rate this tab
 
# A B C D E F G H I J K L M N O P Q R S T U V W X Y Z