Song name
# A B C D E F G H I J K L M N O P Q R S T U V W X Y Z

Fokofpolisiekar - My Lys Verskonings tab

Awe nog 'n intro van 'n song. ek het bietjie gesukkel hiermee toe help my kitaarguru my 
sal dit later voltooi dis al vir nou ons is nog nie seker oor 'n paar dele nie. oefen 
solank die dit sal jou besig hou vir eers. befokte song.

tuning: EBGDAE

distorted

|---------------------------------------|---------------------------------|
|---------------------------------------|---------------------------5-----|
|---------------------------------9-----|---------------------------------|
|--4--------7-----6-----7-----6h7---7p6-|-----7-----6-----7-----6h7---7p6-|
|--4----9-9---9-9---9-9---9-9-----------|-5-5---5-5---5-5---5-5-----------|
|--2------------------------------------|---------------------------------|
      PM---   ---   ---   ---             ---   ---   ---   ---

|---------------------------------------||
|---------------------------------------||
|---------------------------------------||
|-----7-----6-----7---------------------||
|-4-4---4-4---4-4---4-4-7-7-7-7-7-7-7-7-||
|---------------------------------------||

Daar's hy. herhaal maar soveel keer nodig.
Tap to rate this tab
# A B C D E F G H I J K L M N O P Q R S T U V W X Y Z