Song name
# A B C D E F G H I J K L M N O P Q R S T U V W X Y Z

Fol Chen - The Holograms tab

-------------------------------------------------------------------------------
			     THE HOLOGRAMS - Fol Chen
-------------------------------------------------------------------------------

Tuning: Standard

e|--------------------------------------------------------------------------|
B|--------------------------------------------------------------------------|
G|--------------------------------------------------------------------------|
D|-----6-----------------6--------------------------------------------------|
A|--7-----6--7--4--6--7-----6--7--6--4--------10--9--10------10-----9--10---|
E|----------------------------------------8---------------8------8----------|
Repeat above however many times

Verse (1:06)
e|--------------------------------------------------------------------------|
B|--------------------------------------------------------------------------|
G|--------------------------------------------------------------------------|
D|--------------------------------------------------------------------------|
A|--------------------10-9--------------------------------------------------|
E|--9-9-12----9--9-9--------12---9---9-9---12~----/9------------------------|


e|--------------------------------------------------------------------------|
B|--------------------------------------------------------------------------|
G|--------------------------------------------------------------------------|
D|--------------------------------------------------------------------------|
A|--------------------10-9--------------------------------------------------|
E|--9-9-12----9--9-9--------12---9---9-9---12~------------------------------|

http://asthmatickitty.com/fol-chen
Tap to rate this tab
 
# A B C D E F G H I J K L M N O P Q R S T U V W X Y Z