Song name
# A B C D E F G H I J K L M N O P Q R S T U V W X Y Z

Fold - New Skeptics tab

Band: The Fold.
Song: New Skeptics.
Tuning: Drop C# (C#, G#, C#, F#, A#, D#)
Tabber: SorryImAwesome.

Intro:
Guitar #2 (Lead):
D#|----------------------|
A#|----------------------|
F#|-777-44----22---------|
C#|-777-44----22-44-22-4-|
G#|-555-22----00-44-22-4-|
C#|--------------44-22-4-|2x

Verse:
Guitar #2 (Lead):
D#|----------------------|----------------------|
A#|----------------------|----------------------|
F#|-777-44----22---------|-777-44----222--------|
C#|-777-44----22-44-22-4-|-777-44----222--555---|
G#|-555-22----00-44-22-4-|-555-22----000--555---|
C#|--------------44-22-4-|----------------555---|2x

Pre-Chorus #1:
Guitar #1 and #2:
D#|-----------------------------------------|
A#|-----------------------------------------|
F#|------------------------------------xxxx-|
C#|-22222222--2222-000--5555555s7--777-xxxx-|
G#|-22222222--2222-000--5555555s7--777-xxxx-|
C#|-22222222--2222-000--5555555s7--777-xxxx-|
PM  ********  **** ***  ******* *  ***

Chorus:
Guitar #1 and #2:
D#|--------------------------------------|---------------------------------------------------|
A#|--------------------------------------|---------------------------------------------------|
F#|-7------7------7----------------------|-7------7------------------------------------------|
C#|-7(16x)-5(16x)-7(16x)-4444-4-44s5-555-|-7(16x)-5(16x)-7------4444-4-44s5-55-5-5s444444s7~-|
G#|-5------5------5------4444-4-44s5-555-|-5------5------7(16x)-4444-4-44s5-55-5-5s444444s7~-|
C#|--------5-------------4444-4-44s5-555-|--------5------7------4444-4-44s5-55-5-5s444444s7~-|

Post-Chorus:
Guitar #1 (Rhythmn):
D#|----------------------|
A#|----------------------|
F#|-777-44----22---------|
C#|-777-44----22-44-22-4-|
G#|-555-22----00-44-22-4-|
C#|--------------44-22-4-|2x

Guitar #2 (Lead):
D#|----------------------------|----------------------------|
A#|-7h8p7----------------------|----------------------------|
F#|-------9p7-4--6-6-6h7-------|-6h7p6-4--------------------|
C#|----------------------4-4-5-|---------7-4----------0-2-4-|
G#|----------------------------|--------------0-0-2-4-------|
C#|----------------------------|----------------------------|
(First time tabbing hammer-ons and pull-offs, so don't criticize me please..  8).)

Verse 2x

Pre-Chorus #2:
Guitar #1 and #2:
D#|---------------------------------------|
A#|---------------------------------------|
F#|----------------------------------xxxx-|
C#|-2222222222222000-55s44s220-7-777-xxxx-|
G#|-2222222222222000-55s44s220-7-777-xxxx-|
C#|-2222222222222000-55s44s220-7-777-xxxx-|
PM  **************** ** ** *** * ***

Chorus 1x

Bridge #1:
Guitar #1 (Rhythmn):
D#|-----------------------------------|--------------------------------|
A#|-----------------------------------|--------------------------------|
F#|-4---------------------------------|-4------6------7----------------|
C#|-4(16x)-5------0------7------4-----|-4(16x)-6(16x)-7(16x)-7------0~-|
G#|-2------5(16x)-0(16x)-7(13x)-4(3x)-|-2------4------5------7(16x)-0~-|
C#|--------5------0------7------4-----|----------------------7------0~-|

Guitar #2 (Lead):
D#|----------------------------------------------------------------------|
A#|-4-2-----------------------------------2~--------------6---6s7s9-9-9\-|
F#|-----5p4h5p4-2-0-2-4~--4h5p4-2-0-2-2s4---4h5p4-2-0---7----------------|
C#|---------------------------------------------------4-----0------------|
G#|----------------------------------------------------------------------|
C#|----------------------------------------------------------------------|

D#|-----------------------------------------------------------------------------|
A#|-4-2---------------2~-6h7p6--------------6h7p6-----6---6---6h7h9-9-9s11-11~--|
F#|-----5p4h5p4-2-0-2----------7-4-2-7h9p7~-------9-7---7---7---------------0---|
C#|-------------------------------------------------------------------------0---|
G#|-------------------------------------------------------------------------0---|
C#|-------------------------------------------------------------------------0---|

Breakdown:
Guitar #2 (Lead):
During the breakdown, play this inbetween:
D#|-5~-|
A#|-7~-|
F#|-7~-|
C#|-7~-|
G#|-5~-|
C#|----|

Then, at the end, play this in harmonics:
D#|-12*-|
A#|-12*-|
F#|-12*-|
C#|-12*-|
G#|-12*-|
C#|-12*-|

Bridge #2:
Guitar #1 (Rhythmn):
D#|--------------------------------------|---------------------------------------------------|
A#|--------------------------------------|---------------------------------------------------|
F#|-7------7------7----------------------|-7------7------------------------------------------|
C#|-7(16x)-5(16x)-7(16x)-4444-4-44s5-555-|-7(16x)-5(16x)-7------4444-4-44s5-55-5-5s444444s7~-|
G#|-5------5------5------4444-4-44s5-555-|-5------5------7(16x)-4444-4-44s5-55-5-5s444444s7~-|
C#|--------5-------------4444-4-44s5-555-|--------5------7------4444-4-44s5-55-5-5s444444s7~-|

Guitar #2 (Lead):
D#|-------------------------------|-----5-----5-5-----5-----5-5\-|
A#|-33-22-33----------------------|-2h3---2h3-----2h3---2h3------|
F#|----------22-00-----------(3x)-|------------------------------|
C#|-----------------44-22-44------|------------------------------|
G#|-------------------------------|------------------------------|
C#|-------------------------------|------------------------------|2x

Outro:
Guitar #1 and #2:
D#|------------------------|
A#|------------------------|
F#|------------------------|
C#|-22222s5-5~--22222-0-0~-|
G#|-22222s5-5~--22222-0-0~-|
C#|-22222s5-5~--22222-0-0~-|

And that's it!





Tap to rate this tab
# A B C D E F G H I J K L M N O P Q R S T U V W X Y Z