Song name
# A B C D E F G H I J K L M N O P Q R S T U V W X Y Z

Folks - Say Something tab

-------------------------------------------------------------------------------
                             Say Something - Folks  (http://www.wearefolks.com)
-------------------------------------------------------------------------------
Tabbed by: Someone Taller than you

Tuning: Standard

This song can be played in bar chords or not but i use them and there are a few 
irregular chords like these two:

  Dm/B     Dm/C
e|-5--------0---|
B|-6--------6---|
G|-5--------7---|
D|-7--------7---|
A|-5--------x---|
E|-7--------7---|



riff 1

e|------------------------|
B|------------------------|
G|------------------------|
D|-------3-2--------------|
A|---2-5-----5------------|
E|-3----------------------|

riff 2

e|----------|
B|----------|
G|----------|
D|-7--------|
A|--7-------|
E|----9-5---|

riff 3

e|----------------|
B|----------------|
G|-7-5------------|
D|-----7-6-5------|
A|-----------8-5--|
E|----------------|

Chords



Intro/ Verse 1: bass only but i'll put the chords in anyway

Dm              Gm            Bb           A
Before you take off and leave, before you lay me down to die

Dm                     Gm         Bb      A
There's something that i might see, a remedy for you and I


Pre-chorus:

Bb      F            Gm           C      A
And I don't know the way, if you show me I might stay

Dm         Dm/B               Dm/C
Has nobody noticed something died

(riff 1)

Verse 2

Dm               Gm            Bb            A
I thought that I knew you well, but in your eyes now I can tell

Dm                  Gm                       Bb                A
That something you lost was dissolved in the dawn, it won't be coming to your

door


Pre-chorus + riff 1


Chorus
G                          G
Won't you say something, won't you tell it like it is

Bb                     Am (let it ring)
When you say something I can't abide, all my weaknesses are mine



(keyboard plays verse chords then riff 2)

Verse 3:

Dm                Gm          Bb            A
A thoughtful and fond farewell, from my parade into your hell

Dm              Gm                        Bb                A
And there's no soul that I'm hoping to save, when I'll be dancing on your 

grave

Pre-chorus + riff 1

Chorus

Bridge

D      Bb
       I can't abide

(riff 3)


solo
e|--------------------------------------------------------------------------|
B|--------------------------------------------------------------------------|
G|--7-9-10-9-7-----7-7-9-7-6-------------7-9-10-9-7---8-8-10-10b-8----------|
D|-7-----------8-------------7-5-7------7--------------------------9b-7-----|
A|---------------------------------8------------------------------------9b-7|
E|--------------------------------------------------------------------------|

e|-8b-6-5-------------------------------------------------------------------|
B|--------------------------------------------------------------------------|
G|--------------------------------------------------------------------------|
D|--------------------------------------------------------------------------|
A|--------------------------------------------------------------------------|
E|--------------------------------------------------------------------------|


Pre-chorus + riff 1

Last Chorus:

G                        G
Won't you say something, won't you tell it like it is

Bb                       Bb
Won't you say something, won't you tell it like it is      x2

D                      Bb
When you say something I can't abide          x2

D                      Am       G           F       Em       Dm   
When you say something I can't abide, oh my weaknessess are mine




thanks for learning. these guys are awesome
Tap to rate this tab
# A B C D E F G H I J K L M N O P Q R S T U V W X Y Z