Song name
# A B C D E F G H I J K L M N O P Q R S T U V W X Y Z

Follow You Home - Once Upon A Lie tab

______________________________________________________________________________
-Song: Once Upon A Lie
-Album: Save Yourself EP
-Artist: Follow You Home
-Difficulty: 5/10

This is the third tab that I have done, and I know this band isnít very well knowwn but
I love this song and tabbed it out. There were no tabs for any songs from Follow You
Home so I might make some more. Any suggestions, corrections and (preferably not) 
complaints, you can email me at:

This_addy_sucks@hotmail.co.uk

Or just leave a comment :)

_______________________________________________________________________________


Drop D (DADGBE)

---Intro---

Lead:
E|-------------------------------7-5-------------------------------------|
B|-----------------------------------8-7---------------------------------|
G|-6-6---4-6-6---4-6-6---4-6-6-8-----------------------------------------|
D|-6-6---4-6-6---4-4-4---4-4---------------------------------------------|
A|-4-4---2-4-4---2-4-4---2-4---------------------------------------------|
D|-----------------------------------------------------------------------|

Rhythm:
E|-----------------------------------------------------------------------|
B|-----------------------------------------------------------------------|
G|-----------------------------------------------------------------------|
D|-----------------------------------------------------------------------|
A|-----------------------------------------------------------------------|
D|-----------------------------------------------------------------------|

Lead:
E|-------------------------------7-5-------------------------------------|
B|-----------------------------------8-7---------------------------------|
G|-6-6---6-------------------6-8-----------------------------------------|
D|-6-6---6-7-7---7-4-4---4-6---------------------------------------------|
A|-4-4---4-7-7---7-4-4---4-6---------------------------------------------|
D|---------7-7---7-4-4---4-6---------------------------------------------|

E|-----------------------------------------------------------------------|
B|-----------------------------------------------------------------------|
G|-6-6---6---------------------------------------------------------------|
D|-6-6---6-7-7---7-4-4---4-6-6---6---------------------------------------|
A|-4-4---4-7-7---7-4-4---4-6-6---6---------------------------------------|
D|---------7-7---7-4-4---4-6-6---6---------------------------------------|

Rhythm:
E|-----------------------------------------------------------------------|
B|-----------------------------------------------------------------------|
G|-6-6---6---------------------------------------------------------------| X2
D|-6-6---6-7-7---7-4-4---4-6-6---6---------------------------------------|
A|-4-4---4-7-7---7-4-4---4-6-6---6---------------------------------------|
D|---------7-7---7-4-4---4-6-6---6---------------------------------------|

---Verse 1---

Lead/Rhythm:
E|-----------------------------------------------------------------------|
B|-----------------------------------------------------------------------|
G|-6x-------------------------------6-66666666666666---------------------|
D|-6x---------------7-77777777777777-6-66666666666666-4-444444-6-666666--|
A|-4x---------------7-77777777777777-4-44444444444444-4-444444-6-666666--|
D|------------------7-77777777777777------------------4-444444-6-666666--|
                      .............    .............    .....    .....
Lead:
E|-----------------------------------------------------------------------|
B|-14------17---15-14-15-14----------------------------------------------|
G|----13-----------------------------------------------------------------| X4
D|-----------------------------------------------------------------------|
A|-----------------------------------------------------------------------|
D|-----------------------------------------------------------------------|

Rhythm:
E|-----------------------------------------------------------------------|
B|-----------------------------------------------------------------------|
G|-6-66666666666666------------------6-66666666666666--------------------|
D|-6-66666666666666-7-77777777777777-6-66666666666666-4-444444-6-666666--|
A|-4-44444444444444-7-77777777777777-4-44444444444444-4-444444-6-666666--|
D|------------------7-77777777777777------------------4-444444-6-666666--|
     .............    .............   ..............   ......   ......


---Pre-Chorus 1-

Lead:
E|-----------------------------------------------------------------------|
B|-----------------------------------------------------------------------|
G|------------------------------------6---6---6---6----------------------| X2
D|----4---4---4---4---6---6---6---6---6---6---6---6---6---6--------------|
A|----4---4---4---4---6---6---6---6---4---4---4---4---6---6---6---4------|
D|----4---4---4---4---6---6---6---6-------------------6---6-6---4--------|

Rhythm:
E|-----------------------------------------------------------------------|
B|-----------------------------------------------------------------------|
G|------------------------------------6---6---6---6----------------------| X2
D|----4---4---4---4---6---6---6---6---6---6---6---6---6---6---6---6------|
A|----4---4---4---4---6---6---6---6---4---4---4---4---6---6---6---6------|
D|----4---4---4---4---6---6---6---6-------------------6---6---6---6------|

Lead:
E|-----------------------------------------------------------------------|
B|-----------------------------------------------------------------------|
G|--------------------------------------------------------4--------------|
D|--------------------------------------------------------4--------------|
A|--4---4---4---4-------------------4---4---4---4---------2--------------|
D|------------------6---6---6---6-------------------6-6-6----------------|

Rhythm:
E|-----------------------------------------------------------------------|
B|-----------------------------------------------------------------------|
G|----6---6---6---6-------------------6---6---6---6-------4--------------|
D|----6---6---6---6---6---6---6---6---6---6---6---6-6-6-6-4--------------|
A|----4---4---4---4---6---6---6---6---4---4---4---4-6-6-6-2--------------|
D|--------------------6---6---6---6-----------------6-6-6----------------|

---Chorus 1---

Lead/Rhythm:
E|-----------------------------------------------------------------------|
B|-----------------------------------------------------------------------|
G|-6-6-6-6666666666------------------------------------------------------|
D|-6-6-6-66666666667-7777777777777744444444444444446666666666666666------|
A|-4-4-4-44444444447-7777777777777744444444444444446666666666666666------|
D|-----------------7-7777777777777744444444444444446666666666666666------|

Lead:
E|-----------------------------------------------------------------------|
B|-----------------------------------------------------------------------|
G|-6--2--6--2--9-7-6--2--6--2--9-7---------------------------------------|
D|-6--0--6--0--9-7-6--0--6--0--9-7-4-444444444444446x--------------------|
A|-4--0--4--0--7-5-4--0--4--0--7-5-4-444444444444446x--------------------|
D|---------------------------------4-444444444444446x--------------------|


Rhythm:
E|-----------------------------------------------------------------------|
B|-----------------------------------------------------------------------|
G|-6-6-6-6666666666------------------------------------------------------|
D|-6-6-6-66666666667-7777777777777744444444444444446x--------------------|
A|-4-4-4-44444444447-7777777777777744444444444444446x--------------------|
D|-----------------7-7777777777777744444444444444446x--------------------|

---Pre-Verse---

Lead/Rhythm:
E|-----------------------------------------------------------------------|
B|-----------------------------------------------------------------------|
G|-666---6---------------------------------------------------------------|
D|-666---6-7-7---7-4-4---4-6-6---6---------------------------------------|
A|-444---4-7-7---7-4-4---4-6-6---6---------------------------------------|
D|---------7-7---7-4-4---4-6-6---6---------------------------------------|

---Verse 2---

Lead:
E|-----------------------------------------------------------------------|
B|-----------------------------------------------------------------------|
G|---6-6-----4-4-----6-6-----4-4-----------------------------------------|
D|-46----6446----6446----6446-----44444444444444446666666666666666-------|
A|--------------------------------44444444444444446666666666666666-------|
D|--------------------------------44444444444444446666666666666666-------|
   ... . ..... . ..... . ..... .
Rhythm:
E|-----------------------------------------------------------------------|
B|-----------------------------------------------------------------------|
G|-6x--------------------------------------------------------------------|
D|-6x--------------------------76-44444444444444446666666666666666-------|
A|-4x--------------------------76-44444444444444446666666666666666-------|
D|-----------------------------76-44444444444444446666666666666666-------|

Lead:
E|-----------------------------------------------------------------------|
B|-----5-56---5-568------------------------------------------------------|
G|-6-67-7ó-7-7-7---2-2454522-24545---------------------------------------|
D|--------------------------------44444444444444446666666666666666-------|
A|--------------------------------44444444444444446666666666666666-------|
D|--------------------------------44444444444444446666666666666666-------|

Rhythm:
E|-----------------------------------------------------------------------|
B|-----------------------------------------------------------------------|
G|-6x--------------------------------------------------------------------|
D|-6x--------------------------76-44444444444444446666666666666666-------|
A|-4x--------------------------76-44444444444444446666666666666666-------|
D|-----------------------------76-44444444444444446666666666666666-------|

---Pre-Chorus 2---

Lead/Rhythm:
E|-----------------------------------------------------------------------|
B|-----------------------------------------------------------------------|
G|-----------------------------------------------------------------------|
D|---4---4---4---4-6-----------------------------------------------------|
A|---4---4---4---4-6-----------------------------------------------------|
D|---4---4---4---4-6-----------------------------------------------------|

---Chorus 1---

Lead/Rhythm:
E|-----------------------------------------------------------------------|
B|-----------------------------------------------------------------------|
G|-6-6-6-6666666666------------------------------------------------------|
D|-6-6-6-66666666667-7777777777777744444444444444446666666666666666------|
A|-4-4-4-44444444447-7777777777777744444444444444446666666666666666------|
D|-----------------7-7777777777777744444444444444446666666666666666------|

Lead:
E|-----------------------------------------------------------------------|
B|-----------------------------------------------------------------------|
G|-6--2--6--2--9-7-6--2--6--2--9-7---------------------------------------|
D|-6--0--6--0--9-7-6--0--6--0--9-7-4-444444444444446666666666666666------|
A|-4--0--4--0--7-5-4--0--4--0--7-5-4-444444444444446666666666666666------|
D|---------------------------------4-444444444444446666666666666666------|


Rhythm:
E|-----------------------------------------------------------------------|
B|-----------------------------------------------------------------------|
G|-6-6-6-6666666666------------------------------------------------------|
D|-6-6-6-66666666667-7777777777777744444444444444446666666666666666------|
A|-4-4-4-44444444447-7777777777777744444444444444446666666666666666------|
D|-----------------7-7777777777777744444444444444446666666666666666------|

Lead/Rhythm:
E|-----------------------------------------------------------------------|
B|-----------------------------------------------------------------------|
G|-6-6-6-6666666666------------------------------------------------------|
D|-6-6-6-66666666667-7777777777777744444444444444446666666666666666------|
A|-4-4-4-44444444447-7777777777777744444444444444446666666666666666------|
D|-----------------7-7777777777777744444444444444446666666666666666------|

Lead:
E|-----------------------------------------------------------------------|
B|-----------------------------------------------------------------------|
G|-6--2--6--2--9-7-6--2--6--2--9-7---------------------------------------|
D|-6--0--6--0--9-7-6--0--6--0--9-7-4-444444444444446x--------------------|
A|-4--0--4--0--7-5-4--0--4--0--7-5-4-444444444444446x--------------------|
D|---------------------------------4-444444444444446x--------------------|

Rhythm:
E|-----------------------------------------------------------------------|
B|-----------------------------------------------------------------------|
G|-6x--------------------------------------------------------------------|
D|-6x--------------7-7777777777777744444444444444446x--------------------|
A|-4x--------------7-7777777777777744444444444444446x--------------------|
D|-----------------7-7777777777777744444444444444446x--------------------|

---Solo---

Lead:
E|-----------------------------------------------------------------------|
B|-14~--14-16-------17-15-15b-14-14b-12-10-12-10-12b---------------------|
G|------------13~------------------------------------12b-12b-------------|
D|-----------------------------------------------------------------------|
A|-----------------------------------------------------------------------|
D|-----------------------------------------------------------------------|

E|----------------------------------------------------19-19-17-16-14-------|
B|-------------------------------------------------------------------------|
G|-17-17-15-14-12-15-14-12h14p12-12h14p12-----14b--------------------------|
D|----------------------------------------12b-----12b----------------------|
A|-------------------------------------------------------------------------|
D|-------------------------------------------------------------------------|
  |---Tremolo picked-------------------------------------------------------|

E|----14------16-14-12-11-12---------------------------------------------|
B|-16----14------------------(18p16p15h16h18)-X4-------------------------|
G|-----------------------------------------------------------------------|
D|-----------------------------------------------------------------------|
A|-----------------------------------------------------------------------|
D|-----------------------------------------------------------------------|

E|-16-14-12-11-12-14-16-14-12-11-12-14-12p11-----------------------------|
B|-------------------------------------------14~-------------------------|
G|-----------------------------------------------------------------------|
D|-----------------------------------------------------------------------|
A|-----------------------------------------------------------------------|
D|-----------------------------------------------------------------------|

Rhythm:
E|-----------------------------------------------------------------------|
B|-----------------------------------------------------------------------|
G|-6-6-6-6-6-6-6-6-------------------------------------------------------| X2
D|-6-6-6-6-6-6-6-6-7-7-7-7-7-7-7-7-4-4-4-4-4-4-4-4-6-6-6-6-6-6-6-6-------|
A|-4-4-4-4-4-4-4-4-7-7-7-7-7-7-7-7-4-4-4-4-4-4-4-4-6-6-6-6-6-6-6-6-------|
D|-----------------7-7-7-7-7-7-7-7-4-4-4-4-4-4-4-4-6-6-6-6-6-6-6-6-------|

---Outro---

Lead/Rhythm:
E|-----------------------------------------------------------------------|
B|-----------------------------------------------------------------------|
G|---------------------------------66-666-666-666-6----------------------|
D|-44-444-444-444-466-666-666-666-666-666-666-666-666-666-66--6--6-------|
A|-44-444-444-444-466-666-666-666-644-444-444-444-466-666-66--6--6-------|
D|-44-444-444-444-466-666-666-666-6----------------66-666-66--6--6-------|

Lead/Rhythm:
E|-----------------------------------------------------------------------|
B|-----------------------------------------------------------------------|
G|---------------------------------6--6--6-6-----------------------------|
D|-4--4--4-4-------6--6--6-6--/11\-6--6--6-6-------6--6--6-6-------------|
A|-4--4--4-4-------6--6--6-6--/11\-4--4--4-4-------6--6--6-6-------------|
D|-4--4--4-4-------6--6--6-6--/11\-----------------6--6--6-6-------------|

Lead/Rhythm:
E|-----------------------------------------------------------------------|
B|-----------------------------------------------------------------------|
G|-66-666-666-666-6----------------66-666-666-666-6----------------------|
D|-66-666-666-666-666-666-666-666-666-666-666-666-66666666666666666------|
A|-44-444-444-444-466-666-666-666-644-444-444-444-46666666666666666------|
D|-----------------66-666-666-666-6----------------6666666666666666------|

Lead/Rhythm:
E|-----------------------------------------------------------------------|
B|-----------------------------------------------------------------------|
G|-6x--------------------------------------------------------------------|
D|-6x--------------------------------------------------------------------|
A|-4x--------------------------------------------------------------------|
D|-----------------------------------------------------------------------|

Thatís the whole song, enjoy!

************************************

| /   slide up
| \   slide down
| h   hammer-on
| p   pull-off
| ~   vibrato
| +   harmonic
| x   Mute note
| b   Bend
| pb  Pre-bend
| br  Bend release
| pbr Pre-bend release
| brb Bend release bend

************************************

The band website is http://www.followyouhome.com

If there is an problems then email me.
Tap to rate this tab
 
# A B C D E F G H I J K L M N O P Q R S T U V W X Y Z