Song name
# A B C D E F G H I J K L M N O P Q R S T U V W X Y Z

Folly - Mourning Song tab

----------------------------------------------------------------------------
			The Mourning Song - Folly
----------------------------------------------------------------------------
Tabbed by: Luke Ellis
Email: sparda716@yahoo.com

Tuning: Standard



this song is the intro to folly's album "insanity later"
these are the notes just listen for the pattern, i havent seen
any folly tabs out yet but please help



e|----------------------------------------------
b|----------------------------------------------
g|---------0-----0------------------------------
d|------6-----6---------------------------------
a|---4------------------------------------------
E|----------------------------------------------

e|----------------------------------------------
b|----------------------------------------------
g|----------0-----0-----------------------------
d|-------4-----4--------------------------------
a|---2------------------------------------------
E|----------------------------------------------

e|----------------------------------------------
b|----------------------------------------------
g|---------0--------0---------------0-----0-----
d|------8--------8------6-5------4-----4--------
a|---6--------6---------------2-----------------
E|----------------------------------------------

end on

e|--0~------------------------------------------
b|--0~------------------------------------------
g|--0~------------------------------------------
d|--4~------------------------------------------
a|--2~------------------------------------------
E|--0~------------------------------------------


Tap to rate this tab
# A B C D E F G H I J K L M N O P Q R S T U V W X Y Z