Song name
# A B C D E F G H I J K L M N O P Q R S T U V W X Y Z

Folly - Last Letter We Ever Wrote tab

tuning e B G D A D

|--------------------------------------------------------------|
|--------------------------------------------------------------|
|-----0-----0---0------0-----0---0-----0-----0---0-------------|
|---2---2-3---3------2---2-3---3-----2---2-3---3-------0-----0-|
|-0----------------0---------------0---------------2-3---2-3---|
|--------------------------------------------------------------|


|--------------------------------------------------------------------------|
|--------------------------------------------------------------------------|
|-----0-----0---0------0-----0---0-----0-----0---0-----------------------0-|
|---2---2-3---3------2---2-3---3-----2---2-3---3-------0-----0-----0-----0-|
|-0----------------0---------------0---------------2-3---2-3---2-3---2-3---|
|--------------------------------------------------------------------------|



Then it goes into the breakdownish part, but i dont know that yet. enjoy?
Tap to rate this tab
# A B C D E F G H I J K L M N O P Q R S T U V W X Y Z