Song name
# A B C D E F G H I J K L M N O P Q R S T U V W X Y Z

Fono - Radio tab

-------------------------------------------------------------------------------
			     Radio - Fono
-------------------------------------------------------------------------------
Tabbed by: Jorge Acevedo
Email:jorge_acevedo@hotmail.com

Tuning: standard tunning.

Intro
 Clean
   F       C#        G#       C
E--------------------------------|
B--------------------------------|
G--------------------------------|
D--10------6---------------------|   (x1)
A--8-------4---------6--------10-|
E--------------------4--------8--|

Distortion
E--------------------------------|
B--------------------------------|
G----------6------------------5--|
D--3-------6---------6--------5--|   (x2)
A--3-------4---------6--------3--|
E--1-----------------4-----------|


Verse (Clean)
E--------------------------------|
B--------------------------------|
G--------------------------------|
D--10------6---------------------|   (x5)
A--8-------4---------6--------10-|
E--------------------4--------8--|

Chorus
E---------------------------------------------------------------|
B---------------------------------------------------------------|
G--5---6---------------5---6-------------5---6------------------|
D--5---6----6---10-----5---6----6---5----5---6----6---10--9--10-|  (x1)
A--3---4----6---10-----3---4----6---5----3---4----6---10--9--10-|
E-----------4---8---------------4---3-------------4---8---7--8--|

E--------------------------------|
B--------------------------------|
G----------6------------------5--|
D--3-------6---------6--------5--|   (x1)
A--3-------4---------6--------3--|
E--1-----------------4-----------|

Verse (Clean)
E--------------------------------|
B--------------------------------|
G--------------------------------|
D--10------6---------------------|   (x5)
A--8-------4---------6--------10-|
E--------------------4--------8--|

Chorus
E---------------------------------------------------------------|
B---------------------------------------------------------------|
G--5---6---------------5---6-------------5---6------------------|
D--5---6----6---10-----5---6----6---5----5---6----6---10--9--10-|  (x1)
A--3---4----6---10-----3---4----6---5----3---4----6---10--9--10-|
E-----------4---8---------------4---3-------------4---8---7--8--|

Bridge
E--------------------------------|
B--------------------------------|
G--------------------------------|
D--6----9-----6---9--------------|   (x1)
A--6----9-----6---9--------------|
E--4----7-----4---7--------------|

(The part of the solo)
E---------------------------------------------------------------|
B---------------------------------------------------------------|
G--5---6---------------5---6-------------5---6------------------|
D--5---6----6---10-----5---6----6---5----5---6----6---10--9--10-|  (x1)
A--3---4----6---10-----3---4----6---5----3---4----6---10--9--10-|
E-----------4---8---------------4---3-------------4---8---7--8--|

Chorus
E---------------------------------------------------------------|
B---------------------------------------------------------------|
G--5---6---------------5---6-------------5---6------------------|
D--5---6----6---10-----5---6----6---5----5---6----6---10--9--10-|  (x1)
A--3---4----6---10-----3---4----6---5----3---4----6---10--9--10-|
E-----------4---8---------------4---3-------------4---8---7--8--|

Outro
E--------------------------------|
B--------------------------------|
G----------6------------------5--|
D--3-------6---------6--------5--|   (x3)
A--3-------4---------6--------3--|
E--1-----------------4-----------|
Tap to rate this tab
# A B C D E F G H I J K L M N O P Q R S T U V W X Y Z