Song name
# A B C D E F G H I J K L M N O P Q R S T U V W X Y Z

Foo Fighters - Echoes Silence Patience Grace tab

This is the whole album of the Foo Fighters: Echoes, Silence, Patience & Grace. This
me a while 2 do so i hope u enjoy it and so i think its accurate. Be aware that I've added
guitarist except 4 the bass guitarist. These songs where tabbed by me and my friend who 
also a guitarist. Sorry I couldnt do the whole album because i didnt have space.

Instrument: Guitar

Tuning: eBGDAD

Tabbed by: DestinedChild98

1) The Pretender

Intro
(Gtr. 1, clean)
e||----------7------------------------------------------------0----------||
B||--------10-10--------10---10---10--------10--------------10-10--------||
G||-------9-----9-------9----9----9--------9---------------9-----9-------||(x2)
D||-----10-------10-----10---10---10-----10--------------10-------10-----||
A||---0-------------0-----------0-----9---------9b10-9-8-----------------||
E||-------------------7----8---------------------------------------------||

e||----------7--------------------------------------------------||
B||--------10-10--------10---10---10--------10--------------10--||
G||-------9-----9-------9----9----9--------9---------------9----||
D||-----10-------10-----10---10---10-----10--------------10-----||
A||---0-------------0-----------0-----9---------9b10-9-8--------||
E||-------------------7----8------------------------------------||


Intro Part 2
(Gtr. 1, dist.)
e||--0-0-2-0-3-0-5-0---0-2-0-3-0-5--||
B||--5-5-5-5-5-5-5-5---5-5-5-5-5-5--||
G||---------------------------------||
D||---------------------------------||
A||---------------------------------||
E||---------------------------------||


Verse
 (Gtr. 2)
e||--0-0---------0-0-0-0-------------|--0-0----------0-0-0-0-----------||
B||--1-1---------1-1-1-1-------------|--1-1----------1-1-1-1-----------||
G||--2-2---------2-2-2-2-------------|--2-2----------2-2-2-2-----------||
D||--2-2---------2-2-2-2-------------|--2-2----------2-2-2-2-----------||
A||--0-0---------0-0-0-0-------------|--0-0----------0-0-0-0-----------||
E||----------------------------------|---------------------------------||

e||--0-0---------0-0-0-0-------------|--0-0----------0-0-0-0-----------||
B||--3-3---------3-3-3-3-------------|--1-1----------1-1-1-1-----------||
G||--2-2---------2-2-2-2-------------|--0-0----------0-0-0-0-----------||
D||--0-0---------0-0-0-0-------------|--3-3----------3-3-3-3-----------||
A||--0-0---------0-0-0-0-------------|--3-3----------3-3-3-3-----------||
E||--2-2---------2-2-2-2-------------|--1-1----------1-1-1-1-----------||

 (last 8 bars of verse, palm muted)
e||--0-0-0-0-0-0-0-0-0-0-0-0-0-0-0-0-|-0-0-0-0-0-0-0-0-0-0-0-0-0-0-0-0-||
B||--1-1-1-1-1-1-1-1-1-1-1-1-1-1-1-1-|-1-1-1-1-1-1-1-1-1-1-1-1-1-1-1-1-||
G||--2-2-2-2-2-2-2-2-2-2-2-2-2-2-2-2-|-2-2-2-2-2-2-2-2-2-2-2-2-2-2-2-2-||
D||--2-2-2-2-2-2-2-2-2-2-2-2-2-2-2-2-|-2-2-2-2-2-2-2-2-2-2-2-2-2-2-2-2-||
A||--0-0-0-0-0-0-0-0-0-0-0-0-0-0-0-0-|-0-0-0-0-0-0-0-0-0-0-0-0-0-0-0-0-||
E||----------------------------------|---------------------------------||

e||--0-0-0-0-0-0-0-0-0-0-0-0-0-0-0-0-|-0-0-0-0-0-0-0-0-0-0-0-0-0-0-0-0-||
B||--3-3-3-3-3-3-3-3-3-3-3-3-3-3-3-3-|-1-1-1-1-1-1-1-1-1-1-1-1-1-1-1-1-||
G||--2-2-2-2-2-2-2-2-2-2-2-2-2-2-2-2-|-0-0-0-0-0-0-0-0-0-0-0-0-0-0-0-0-||
D||--0-0-0-0-0-0-0-0-0-0-0-0-0-0-0-0-|-3-3-3-3-3-3-3-3-3-3-3-3-3-3-3-3-||
A||--0-0-0-0-0-0-0-0-0-0-0-0-0-0-0-0-|-3-3-3-3-3-3-3-3-3-3-3-3-3-3-3-3-||
E||--2-2-2-2-2-2-2-2-2-2-2-2-2-2-2-2-|-1-1-1-1-1-1-1-1-1-1-1-1-1-1-1-1-||


Pre-Chorus ("Same old story")
e||------------------------------------------||
B||------------------------------------------||
G||--7-7-7-7-9-9-9-9-11-11-11-11-12-12-12-12-||
D||--x-x-x-x-x-x-x-x-x--x--x--x--x--x--x--x--||
A||--5-5-5-5-7-7-7-7-9--9--9--9--10-10-10-10-||
E||------------------------------------------||


Chorus
(Gtr. 1)
e||--0-0-0-0-0-0-0-0-0-0-0-0-0-0-0-0----||
B||--1-1-1-1-1-1-1-1-1-1-1-1-1-1-1-1----||
G||--2-2-2-2-2-2-2-2-2-2-2-2-2-2-2-2----||(x4)
D||--2-2-2-2-2-2-2-2-2-2-2-2-2-2-2-2----||
A||-------------------------------------||
E||-------------------------------------||

(Gtr. 2)
e||--0--0--0--0--0--0--0--0--0--0--0--0--0--0--0--0-||
B||-10-10-10-10-10-10-10-10-10-10-10-10-10-10-10-10-||
G||--9--9--9--9--9--9--9--9--9--9--9--9--9--9--9--9-||
D||-10-10-10-10-10-10-10-10-10-10-10-10-10-10-10-10-||
A||--0--0--0--0--0--0--0--0--0--0--0--0--0--0--0--0-||
E||-------------------------------------------------||

e||--0--0--0--0--0--0--0--0--0--0--0--0--0--0--0--0-||
B||-10-10-10-10-10-10-10-10-10-10-10-10-10-10-10-10-||
G||--9--9--9--9--9--9--9--9--9--9--9--9--9--9--9--9-||
D||-10-10-10-10-10-10-10-10-10-10-10-10-10-10-10-10-||
A||--0--0--0--0--X--X--X--X--X--X--X--X--0--0--0--0-||
E||--------------7--7--7--7--8--8--8--8--X--X--X--X-||

e||--0--0--0--0--0--0--0--0--0--0--0--0--0--0--0--0-||
B||-10-10-10-10-10-10-10-10-10-10-10-10-10-10-10-10-||
G||--9--9--9--9--9--9--9--9--9--9--9--9--9--9--9--9-||
D||-10-10-10-10-10-10-10-10-10-10-10-10-10-10-10-10-||
A||--9--9--9--9--9--9--9--9--9--9--9--9--9--9--9--9-||
E||-------------------------------------------------||

e||--0--0--0--0--0--0--0--0--0--0--0--0--0--0--0--0-||
B||-10-10-10-10-10-10-10-10-10-10-10-10-10-10-10-10-||
G||--9--9--9--9--9--9--9--9--9--9--9--9--9--9--9--9-||
D||-10-10-10-10-10-10-10-10-10-10-10-10-10-10-10-10-||
A||--8--8--8--8--8--8--8--8--8--8--8--8--8--8--8--8-||
E||-------------------------------------------------||


Bridge Riff (i.e. 2'39)
e||----------------------------------||
B||----------------------------------||
G||----------------2-----X-----------||
D||--2-X-4-X-5-X-4-2-X-X-4-X-5-X-7\2-||
A||--0-0-0-0-0-0-0-0-0-0-0-0-0-0-0---||
E||----------------------------------||


Bridge 2 ("I'm what's left, I'm whats right...")
e||--------------------------||---------------------------||
B||-------------------------(x4)--------------------------||(x4)
G||--------------------------||---------------------------||
D||--10----10-9--X--7--5--X--||-12----12-10-X--9--10------||
A||--0--0--0--0--0--0--0--0--||-0--0--0--0--0--0--0--0----||
E||--------------------------||---------------------------||

(So who, are you ...)
e||----------------------------||
B||----------------------------||(x8)
G||-----------12-X--14-X-------||
D||--14----14-X--X--X--12------||
A||--0--0--0--0--0--0--0--0----||
E||----------------------------||

2) Let It Die

Tuning: eBGDAE

intro/verse

e-|--8-------------------5------------8-------------------5---------|
b-|----6---------------------3----------6---------------------3-----|
g-|------0---0---0---0--------------------0---0---0---0-----------0-|
d-|8-----------7---5---5-------5---/8-----------7---5---5-------5---|
a-|--------8--------------------------------8-----------------------|
e-|-----------------------------------------------------------------|


chorus - the timing is a bit tricky

e-|--8-------------|-------------------|-------------------|------------------|
b-|----6-----------|---8---------------|11-----------------|---8--------------|
g-|------0---0---0-|-----0---0----0----|---0----0---0----0-|-----0---0----0---|
d-|8-----------7---|-------9---10---13-|-----13---8---12---|10-----9--------8-|
a-|--------8-------|10-----------------|-------------------|-----------10-----|
E-|----------------|-------------------|-------------------|------------------|
   ^   ^   ^   ^    ^    ^   ^    ^     ^    ^    ^   ^    |^    ^   ^    ^
   1   2   3   4   |1    2   3    4     1    2    3   4     1    2   3    4


e-|----------------|-------------------|-------------------|-------------------|
b-|6---------------|---8---------------|11-----------------|---8---------------|
g-|--0---0---0---0-|-----0---0----0----|---0----0---0----0-|-----0---0----0----|
d-|----8-------7---|-------9---10---13-|-----13---8---12---|10-----9-----------|
a-|--------8-------|10-----------------|-------------------|-----------10---10-|
E-|----------------|-------------------|-------------------|-------------------|
   ^   ^   ^   ^   |^    ^   ^    ^    |^    ^    ^   ^    |^    ^   ^    ^
   1   2   3   4    1    2   3    4     1    2    3   4     1    2   3    4


after second chorus

e-|----|----------------|----------------|----------------|----------------|
b-|----|----------------|----------------|----------------|----------------|
g-|----|----------------|----------------|----------------|----------------|
d-|5-5-|5-5-5-5-5-5-5-5-|5-5-5-5-5-5-5-5-|5-5-5-5-5-5-5-5-|5-5-5-5-5-5-5-5-|
a-|5-5-|5-5-5-5-5-5-5-5-|5-5-5-5-5-5-5-5-|5-5-5-5-5-5-5-5-|5-5-5-5-5-5-5-5-|
E-|3-3-|3-3-3-3-3-3-3-3-|3-3-3-3-3-3-3-3-|3-3-3-3-3-3-3-3-|3-3-3-3-3-3-3-3-|
       |  pm=========   |pm==============|================|===========     |

e-|----------------|----------------|----------------|----------------|
b-|----------------|----------------|----------------|----------------|
g-|----------------|----------------|----------------|----------------|
d-|5-5-5-5-5-5-5-5-|5-5-5-5-5-5-5-5-|5-5-5-5-5-5-5-5-|5-5-5-5-5-5-5-5-|
a-|5-5-5-5-5-5-5-5-|5-5-5-5-5-5-5-5-|5-5-5-5-5-5-5-5-|5-5-5-5-5-5-5-5-|
E-|3-3-3-3-3-3-3-3-|3-3-3-3-3-3-3-3-|3-3-3-3-3-3-3-3-|3-3-3-3-3-3-3-3-|
     pm============|pm===========   |pm==============|================|


after that - play 3.5 times

e-|---------6--------------8-----------------3-------------5---------|
b-|-----4-------4-----6--------6---------1-------1-----3-------3-----|
g-|---0---0---0---0-----0----0---0-----0---0---0---0-----0---0---0---|
d-|------------------------------------------------------------------|
a-|6----------------8----------------3---------------5---------------|
E-|------------------------------------------------------------------|

then

e-|----------------|
b-|--6-------------|
g-|------0---0---0-|
d-|8---8-------7---|
a-|--------8-------|
E-|----------------|

not sure what's going on in the next part
i think dave is just playing something like this,
or some other variation of G:

e-|----------------|
b-|8-8-8-8-8-8-8-8-|
g-|7-7-7-7-7-7-7-7-|
d-|5-5-5-5-5-5-5-5-|
a-|----------------|
E-|----------------|

while the lead is something like this:

e-|---------------------------------------------------------------------------------|
b-|---------------------------------------------------------------------------------|
g-|0-0-0-0---0---0-0--0--0--0-0-0--0--0--0--0--0--0--0-0-0--0--0--0--0--0--0--0-0-0-|
d-|8-8-8-------7------------9-9-10-10-13-13-13-13-13-8-8-12-12-10-10-10-12-12-9-9-8-|
a-|--------8-------10-10-10---------------------------------------------------------|
E-|---------------------------------------------------------------------------------|
                   ^
                   start here the first time

next part (did you ever think of me)
lead continues playing the above lead line
rhythm might play these chords, but i'm open to suggestions

        Bb   F        G         D#    Bb       C  G
did you ever think of me you're so considerate

        Bb   F        G         D#    Bb       C  G
did you ever think of me you're so considerate


after that (in too deep and lost in time) play 3.5 times

3-|------------------------------------------------------------------------|
b-|------------------------------------------------------------------------|
g-|8-8-8-8-8-8-8-8-10-10-10-10-10-10-10-10-5-5-5-5-5-5-5-5-7-7-7-7-7-7-7-7-|
d-|8-8-8-8-8-8-8-8-10-10-10-10-10-10-10-10-5-5-5-5-5-5-5-5-7-7-7-7-7-7-7-7-|
a-|6-6-6-6-6-6-6-6-8--8--8--8--8--8--8--8--3-3-3-3-3-3-3-3-5-5-5-5-5-5-5-5-|
E-|6-6-6-6-6-6-6-6-8--8--8--8--8--8--8--8--3-3-3-3-3-3-3-3-5-5-5-5-5-5-5-5-|


then rhythm plays these chords 3.5 times (end on F)
while lead plays the lead line from before

Bb                F        G            D#  Bb  C   G
why'd you have to go and let this die
Tap to rate this tab
 
# A B C D E F G H I J K L M N O P Q R S T U V W X Y Z