Song name
# A B C D E F G H I J K L M N O P Q R S T U V W X Y Z

Foo Fighters - Erase Replace tab

Help us improve GuitareTab! Take a short survey!
-------------------------------------------------------------------------------
			   ERASE/REPLACE - Foo Fighters
-------------------------------------------------------------------------------
Tabbed by: Barry Miles

Intro Riff:

Guitar 1:
e|---------------------------------------------------------------------------|
B|-----------13--10b(11)r(10)------------------------------------------------|
G|----------------------------10------------------15-------------------------|
D|--------13-----------------------------------15-----15b(17)r(15)-----------|
A|---9/11------------------------12------11/13---------------------15--------|
E|--------------------------------------------------------------------15-----|

e|---------------------------------------------------------------------------|
B|-----------13--10b(11)r(10)---------------------------------------17-------|
G|----------------------------10------------------15-------15----15----15\---|
D|--------13-----------------------------------15----15-14----14-------------|
A|---9/11------------------------12------11/13-------------------------------|
E|---------------------------------------------------------------------------|

Guitar 2:
e|-----------------------------------------------------|
B|-------8-----------8-----------8------------8--------|
G|----0-----0-----0-----0-----0-----0------0-----------|
D|-6-----------7-----------8-----------10--------------|
A|-----------------------------------------------------|
E|-----------------------------------------------13\-0-|

e|-----------------------------------------------------------------|
B|-----------------------------------------------------------------|
G|-----------------------------------------------------------------|
D|-6-6-6-6-6-6-6-6-7-7-7-7-7-7-7-7-8-8-8-8-8-8-8-8-8-8-8-8-8-8-8-8-|
A|-6-6-6-6-6-6-6-6-8-8-8-8-8-8-8-8-8-8-8-8-8-8-8-8-7-7-7-7-7-7-7-7-|
E|-4-4-4-4-4-4-4-4-5-5-5-5-5-5-5-5-6-6-6-6-6-6-6-6-8-8-8-8-8-8-8-8-|

Verse:

Guitar 2:
e|---------------------------------|
B|---------------------------------| x20(ish?)
G|---------------------------------|
D|-8-8-8-8-8-8-8-8-8-8-8-8-8-8-8-8-|
A|---------------------------------|
E|---------------------------------|

Guitar 1:
e|---------------------------------------------|
B|---------------------------------------------|
G|---------------------------------------------| x6
D|-6-6-6-6-6-----------------------------------|
A|--------------------------------------7------|
E|---------------6-6-6-7-8-8-8-8-8---------8---|

e|-----------------------------------------------------------------|
B|-----------------------------------------------------------------|
G|-----------------------------------------------------------------| x3 1/2
D|-6-6-6-6-6-6-----------------------------------------------------|
A|---------------------------------------------7-7-7-7-7-7---------|
E|-------------6-6-6-6-6-6-6-6-6-7-8-8-8-8-8-8-------------8-8-8-8-|

Chorus:

Both Guitars:
e|-----------------------------------------------------------------|
B|-----------------------------------------------------------------|
G|-----------------------------------------------------------------| x2
D|-6-6-6-6-6-6-6-6-7-7-7-7-7-7-7-7-8-8-8-8-8-8-8-8-8-8-8-8-8-8-8-8-|
A|-6-6-6-6-6-6-6-6-8-8-8-8-8-8-8-8-8-8-8-8-8-8-8-8-7-7-7-7-7-7-7-7-|
E|-4-4-4-4-4-4-4-4-5-5-5-5-5-5-5-5-6-6-6-6-6-6-6-6-8-8-8-8-8-8-8-8-|

Verse
Chorus x2

Bridge:

Guitar 2:
e|-----------------------------------------------------------------|
B|-----------------------------------------------------------------|
G|-------0---------------0---------------0---------------0---------|
D|-----5-----5---------5-----5---------5-----5---------5-----5-----|
A|---3-----------3---3-----------3---3-----------3---3-----------3-|
E|-5-----------5---5-----------5---4-----------4---4-----------4---|
                                                                     x3
e|-----------------------------------------------------------------|
B|-----------------------------------------------------------------|
G|-------0---------------0---------------0---------------0---------|
D|-----5-----5---------5-----5---------3-----3---------3-----3-----|
A|---3-----------3---3-----------3---3-----------3---3-----------3-|
E|-0-----------0---0-----------0---1-----------1---1-----------1---|

Guitar 1:
e|-----------------------------------------------------------------|
B|-----------------------------------------------------------------|
G|-5-5-5-5-5-5-5-5-5-5-5-5-5-5-5-7-7-7-8-8-8-8-8-8-8-8-8-7-7-7-5-5-|
D|-x-x-x-x-x-x-x-x-x-x-x-x-x-x-x-x-x-x-x-x-x-x-x-x-x-x-x-x-x-x-x-x-|
A|-3-3-3-3-3-3-3-3-3-3-3-3-3-3-3-5-5-5-6-6-6-6-6-6-6-6-6-5-5-5-3-3-|
E|-----------------------------------------------------------------|
                                                                     x3
e|-----------------------------------------------------------------|
B|-----------------------------------------------------------------|
G|-5-9-9-9-9-9-9-9-9-9-5-5-5-7-7-7---------------------------------|
D|-x-x-x-x-x-x-x-x-x-x-x-x-x-x-x-x-7-7-7-7-7-7-7-7-7-7-7-7-7-7-7-7-|
A|-3-7-7-7-7-7-7-7-7-7-3-3-3-5-5-5-x-x-x-x-x-x-x-x-x-x-x-x-x-x-x-x-|
E|---------------------------------5-5-5-5-5-5-5-5-5-5-5-5-5-5-5-5-|

Guitar 1 w/Intro Riff x2

Guitar 2:
e|----------------------------------------------------|
B|----------------------------------------------------|
G|-------0--------0---0--------0------------0---------|
D|-----6--------7------------8------------8-----8-----| x2
A|---6--------8------------8------------7-----------7-|
E|-4--------5------------6------------8-----------8---|

Final Chorus:

Guitar 2 w/Regular Chorus x3

Guitar 1 w/Chorus Riff (only once) then:
e|---------------------------------------------------------------------------|
B|---------------------------------------------------------------------------|
G|-17-17-17-17-17-17-17-17-17-17-17-17-17-17-17-17-17-17-17-17-17-17-17-17-17|
D|-x--x--x--x--x--x--x--x--x--x--x--x--x--x--x--x--x--x--x--x--x--x--x--x--x-|
A|-15-15-15-15-15-15-15-15-15-15-15-15-15-15-15-15-15-15-15-15-15-15-15-15-15|
E|---------------------------------------------------------------------------|

(Intro Riff x1)

e|---------------------------------------------------------------------------|
B|---------------------------------------------------------------------------|
G|-17-17-17-17-17-17-17-17-17-17-17-17-17-17-17-17-17-17-17-17-17-17-17-17-17|
D|-x--x--x--x--x--x--x--x--x--x--x--x--x--x--x--x--x--x--x--x--x--x--x--x--x-|
A|-15-15-15-15-15-15-15-15-15-15-15-15-15-15-15-15-15-15-15-15-15-15-15-15-15|
E|---------------------------------------------------------------------------|

e|-------------------------------------------------|
B|-16-16-16-16-16-16-16-16-18-18-18-18-18-18-18-18-|
G|-x--x--x--x--x--x--x--x--x--x--x--x--x--x--x--x--|
D|-13-13-13-13-13-13-13-13-15-15-15-15-15-15-15-15-|
A|-------------------------------------------------|
E|-------------------------------------------------|

e|-------------------------------------------------|
B|-20-20-20-20-20-20-20-20-17-17-17-17-17-17-17-17-|
G|-x--x--x--x--x--x--x--x--x--x--x--x--x--x--x--x--|
D|-17-17-17-17-17-17-17-17-14-14-14-14-14-14-14-14-|
A|-------------------------------------------------|
E|-------------------------------------------------|

e|-----------------------------------|
B|-13--------13--13--13--13--13--13--|
G|-15b(17)---15b-15b-15b-15b-15b-15b-| x4
D|-----------------------------------|
A|-----------------------------------|
E|-----------------------------------|

Outro:

Guitar 1:
e|---------------------------------------------|
B|---------------------------------------------|
G|---------------------------------------------| x1 1/2
D|-6-6-6-6-6-----------------------------------|
A|--------------------------------------7------|
E|---------------6-6-6-7-8-8-8-8-8---------8---|

Guitar 2:
e|---------------------------------------------------------------------------|
B|---------------------------------------------------------------------------|
G|-5-5-5-5-5-5-5-5-5-5-5-5-5-5-5-5-5-5-5-5-5-5-5-5/////////////17------------|
D|-8-8-8-8-8-8-8-8-8-8-8-8-8-8-8-8-8-8-8-8-8-8-8-8/////////////20------------|
A|---------------------------------------------------------------------------|
E|---------------------------------------------------------------------------|


| /  slide up
| \  slide down
| h  hammer-on
| p  pull-off
| ~  vibrato
| +  harmonic
| x  Mute note
===============================================================================

Related for Erase Replace tab