Song name
# A B C D E F G H I J K L M N O P Q R S T U V W X Y Z

Foo Fighters - Miracle tab

Help us improve GuitareTab! Take a short survey!
-------------------------------------------------------------------------------
			     MIRACLE - Foo Fighters
-------------------------------------------------------------------------------
Tabbed by: Barry Miles
Email: shoebox_of_lies@hotmail.com

Tuning: Standard

Intro:
Guitar 1 (acoustic):
e|-0-----0---------|-----------------|-------0---0-----|-----------------|
B|-3---3-3---3-3-3-|-----3-0-3-3-3-3-|-3-3-3-3---3-3---|-----3-0-3-3-3-3-|
G|-2---2-2---2-2-2-|-2---2-0-0-0-0-0-|-2-2-2-2---2-2-0-|-2---2-0-0-0-0-0-|
D|-0---0-------0-0-|-0---0-0-0-0-0-0-|-0-0-0-0-----0-0-|-0---0-0-0-0-0-0-|
A|-0---------------|-x---x---2---2---|-0-0-0-0-----0-0-|-x---x---2---2---|
E|-----------------|-2---2---3---3---|-----------------|-2---2---3---3---|
Guitar 2 (electric clean):
e|-----------------|-----------------|-----------------|-----------------|
B|-----------------|-----------------|-----------------|-----------------|
G|-7-7-7-7-7-7-7-7-|-6-6-6-6-7-7-7-7-|-7-7-7-7-7-7-7-7-|-6-6-6-6-7-7-7-7-|
D|-7-7-7-7-7-7-7-7-|-7-7-7-7-5-5-5-5-|-7-7-7-7-7-7-7-7-|-7-7-7-7-5-5-5-5-|
A|-----------------|-----------------|-----------------|-----------------|
E|-----------------|-----------------|-----------------|-----------------|

Verse:
Guitar 1:
e|-----------------|-----0-0---------|-------0---------|-----0-------0---|
B|-3-3-3-3---3-3-3-|-3---3-3-3-3-3-3-|-3-3---3---3-3-3-|-3---3-3-3---3-0-|
G|-2-2-2-2---2-2-2-|-2---2-2-2-2-2-2-|-2-2-2-2---2-2-2-|-2---2-2-2---2-0-|
D|-0-0-0-0---0-0---|-4---4---0---0-0-|-0-0-0-0-----0---|-4---4-0-0---0-0-|
A|-------------0---|---------4---4---|-----------------|---------4---4---|
E|-----------------|-----------------|-----------------|-----------------|
Guitar 2:
e|-----------------|-----------------|-----------------|-----------------|
B|-----------------|-----------------|-----------------|-----------------|
G|-7---------------|-----------------|-----------------|-----------------|
D|-7---------------|-----------------|-----------------|-----------------|
A|-----------------|-----------------|-----------------|-----------------|
E|-----------------|-----------------|-----------------|-----------------|

Guitar 1:
e|---------------0-|-------0---0---0-|
B|-3---3-3-3---3-0-|-------0---0---0-|
G|-2---2-2-2---2-0-|-1-------------0-|
D|-0---0-0-0---0---|-2---2-------2-0-|
A|-2---2---0---0---|-2-----------2---|
E|-----------------|-0-----------0---|

Guitar 1:
e|-----------------|-----0-0---------|-------0---------|-----0-------0---|
B|-3-3-3-3---3-3-3-|-3---3-3-3-3-3-3-|-3-3---3---3-3-3-|-3---3-3-3---3-0-|
G|-2-2-2-2---2-2-2-|-2---2-2-2-2-2-2-|-2-2-2-2---2-2-2-|-2---2-2-2---2-0-|
D|-0-0-0-0---0-0---|-4---4---0---0-0-|-0-0-0-0-----0---|-4---4-0-0---0-0-|
A|-------------0---|---------4---4---|-----------------|---------4---4---|
E|-----------------|-----------------|-----------------|-----------------|

Guitar 1:
e|---------------0-|-------0---0---0-|-------0---------|
B|-3---3-3-3---3-0-|-------0---0---0-|-------0---------|
G|-2---2-2-2---2-0-|-1-------------2-|-----------2-2-0-|
D|-0---0-0-0---0---|-2---2-------2-2-|---2-2-----2-2-0-|
A|-2---2---0---0---|-2-----------2---|---2-2-----2-2-0-|
E|-----------------|-0-----------0---|-----------------|
Guitar 2:
e|-------------0-0-|---0---0-----0-0-|-----0---0-------|
B|-------------3-3-|-----------------|-----------------|
G|-------------2-2-|-1---1-2---2---2-|---2-----2h1-----|
D|-----------------|-----------------|-------------2---|
A|-----------------|-----------------|-----------------|
E|-----------------|-----------------|-----------------|

Chorus
Guitar 1:
e|-2---2-2-----2---|-------3---3-3---|-------2---2-2---|
B|-2---2-2-----2---|-------3---3-3-0-|-3---3-3---3-3---|
G|-2---2-2-----2---|-4---4-4---4-4-0-|-2---2-2---2-2---| x2
D|-4---4-4-----4-5-|-5---5-----5-5-0-|-0---0-------0-0-|
A|-4---4-4-----4-5-|-5---5-------5-0-|-----0-------0-0-|
E|-2---2-2-----2---|-3---3-------3---|---------------0-|

Guitar 1:
e|-2---2-2-----2---|-------3---3-3---|-------0---0---0-|---0-0-0---0-0---|
B|-2---2-2-----2---|-------3---3-3-0-|-0-----0---0---0-|---0-0-0---0-0-0-|
G|-2---2-2-----2---|-4---4-4---4-4-0-|-x---2-2-----2-2-|---2-2-----2-2-0-|
D|-4---4-4-----4-5-|-5---5-----5-5-0-|-2---2-------2---|-----2-----2-2-0-|
A|-4---4-4-----4-5-|-5---5-------5-0-|-2---2-------2---|-----2-------2-0-|
E|-2---2-2-----2---|-3---3-------3---|-0---0-------0---|-----0-------0---|

Intro
Verse
Chorus

Solo:
Guitar 1 plays first half of verse

Guitar 3 (Violin arranged for acoustic guitar harmonics):
   *       *  *  *   *       *         *       *  *  *   *
e|------------12---|-----------------|------------12---|-----------------|
B|------------|--7-|-----------------|------------|--7-|-----------------|
G|-7-------7--|--|-|---------4-------|---------7--|--|-|-----------------|
D|---------|__|__|-|-----------------|-7-------|__|__|-|-----------------|
A|------------3----|-4---------------|------------3----|-17--------------|
E|-----------------|-----------------|-----------------|-----------------|
           (triplet)                           (triplet)
   *       *         *
e|-----------------|-12--------------|
B|-7---------------|-12--------------|
G|-7---------------|-----------------|
D|-----------------|-----------------|
A|---------4-------|-----------------|
E|---------5-------|-----------------|

Final Chorus:
Guitar 1:
e|-2---2-2-----2---|-------3---3-3---|-------2---2-2---|
B|-2---2-2-----2---|-------3---3-3-0-|-3---3-3---3-3---|
G|-2---2-2-----2---|-4---4-4---4-4-0-|-2---2-2---2-2---| x3
D|-4---4-4-----4-5-|-5---5-----5-5-0-|-0---0-------0-0-|
A|-4---4-4-----4-5-|-5---5-------5-0-|-----0-------0-0-|
E|-2---2-2-----2---|-3---3-------3---|---------------0-|
Guitar 3:
   *                 *                 *
e|-----------------|-----------------|-----------------|
B|-7---------------|-12--------------|-----------------|
G|-----------------|-12--------------|-----------------| x3
D|-7---------------|-----------------|-12--------------|
A|-----------------|-----------------|-12--------------|
E|-----------------|-----------------|-----------------|

Guitar 1:
e|-2---2-2-----2---|-------3---3-3---|-------0---0---0-|---0-0-0---0-0---|
B|-2---2-2-----2---|-------3---3-3-0-|-0-----0---0---0-|---0-0-0---0-0-0-|
G|-2---2-2-----2---|-4---4-4---4-4-0-|-x---2-2-----2-2-|---2-2-----2-2-0-|
D|-4---4-4-----4-5-|-5---5-----5-5-0-|-2---2-------2---|-----2-----2-2-0-|
A|-4---4-4-----4-5-|-5---5-------5-0-|-2---2-------2---|-----2-------2-0-|
E|-2---2-2-----2---|-3---3-------3---|-0---0-------0---|-----0-------0---|
Guitar 3:
   *                 *                 *
e|-----------------|-----------------|-12--------------|-----------------|
B|-7---------------|-12--------------|-12--------------|-----------------|
G|-----------------|-12--------------|-----------------|-----------------|
D|-7---------------|-----------------|-----------------|-----------------|
A|-----------------|-----------------|-----------------|-----------------|
E|-----------------|-----------------|-----------------|-----------------|

Outro:
Guitar 1:
e|-0-----0---------|-----------------|-------0---0-----|-----------------|
B|-3---3-3---3-3-3-|-----3-0-3-3-3-3-|-3-3-3-3---3-3---|-----3-0-3-3-3-3-|
G|-2---2-2---2-2-2-|-2---2-0-0-0-0-0-|-2-2-2-2---2-2-0-|-2---2-0-0-0-0-0-| x2
D|-0---0-------0-0-|-0---0-0-0-0-0-0-|-0-0-0-0-----0-0-|-0---0-0-0-0-0-0-|
A|-0---------------|-x---x---2---2---|-0-0-0-0-----0-0-|-x---x---2---2---|
E|-----------------|-2---2---3---3---|-----------------|-2---2---3---3---|
Guitar 2:
e|-----------------|-----------------|-----------------|-----------------|
B|-----------------|-----------------|-----------------|-----------------|
G|-7-7-7-7-7-7-7-7-|-6-6-6-6-7-7-7-7-|-7-7-7-7-7-7-7-7-|-6-6-6-6-7-7-7-7-| x2
D|-7-7-7-7-7-7-7-7-|-7-7-7-7-5-5-5-5-|-7-7-7-7-7-7-7-7-|-7-7-7-7-5-5-5-5-|
A|-----------------|-----------------|-----------------|-----------------|
E|-----------------|-----------------|-----------------|-----------------|
Guitar 3:
   *       *  *  *   *       *         *       *  *  *   *       *
e|------------12---|-----------------|------------12---|-----------------|
B|-7-------7-----7-|---------12------|---------7-----7-|---------12------|
G|-7-------7--12---|-----------------|-7-------7--12---|-----------------|
D|---------|--|--7-|---------12------|-7-------|--|--7-|---------12------|
A|---------|__|__|-|-4---------------|---------|__|__|-|-4---------------|
E|------------3----|-5---------------|-----------------|-5---------------|
           (triplet)                           (triplet)
   *       *  *  *   *       *         *       *  *  *   *       *
e|------------12---|-----------------|------------12---|-----------------|
B|---------7-----7-|---------12------|---------7-----7-|---------12------|
G|-7-------7--12---|-----------------|-7-------7--12---|-----------------|
D|-7-------|--|--7-|---------12------|-7-------|--|--7-|---------12------|
A|---------|__|__|-|-4---------------|---------|__|__|-|-4---------------|
E|------------3----|-5---------------|-----------------|-5---------------|
           (triplet)                           (triplet)

Guitar 1:
e|-2---------------|
B|-3---------------|
G|-2---------------|
D|-0---------------|
A|-----------------|
E|-----------------|
Guitar 2:
e|-----------------|
B|-----------------|
G|-7---------------|
D|-7---------------|
A|-----------------|
E|-----------------|

| h  hammer-on
| *  harmonic
| x  Mute note
===============================================================================
Related for Miracle tab