Guitaretab - guitar tabs
Song name
# A B C D E F G H I J K L M N O P Q R S T U V W X Y Z

Foo Fighters - Hell tab

-------------------------------------------------------------------------------
			     HELL - Foo Fighters
-------------------------------------------------------------------------------
Tabbed by: Barry Miles
Email: shoebox_of_lies@hotmail.com

Tuning: Standard

INTRO
  Guitar 1
e|-----------------------------|-----------------------------|
B|-----------------------------|-----------------------------|
G|-7--7-7-7--7--7-7-7--7--7-7--|-7--7-7-7--7--7-7-7--7--7-7--|
D|-x--x-x-x--x--x-x-x--x--x-x--|-x--x-x-x--x--x-x-x--x--x-x--|
A|-5--5-5-5--5--5-5-5--5--5-5--|-5--5-5-5--5--5-5-5--5--5-5--|
E|-----------------------------|-----------------------------|

VERSE
  Guitar 1
e|----------------------------|----------------------------|
B|----------------------------|----------------------------|
G|-7--7-7-7--7--7-7-7--7--7-7-|-7--7-7-7--7--7-7-7--7--7-7-|
D|-x--x-x-x--x--x-x-x--x--x-x-|-x--x-x-x--x--x-x-x--x--x-x-|
A|-5--5-5-5--5--5-5-5--5--5-5-|-5--5-5-5--5--5-5-5--5--5-5-|
E|----------------------------|----------------------------|
 |Guitar 2                                                 | x2
e|----------------------------|----------------------------|
B|----------------------------|----------------------------|
G|-12--11--9--7-------9--7--5-|-----5--5--4--2-------------|
D|--x---x--x--x-------x--x--x-|-----x--x--x--x-------------|
A|-10---9--7--5-------7--5--3-|-----3--3--2--0-------------|
E|----------------------------|----------------------------|
 1.This state I'm in
 2.A place I've never been
  
  Guitar 1
e|----------------------------|----------------------------|
B|----------------------------|----------------------------|
G|-7--7-7-7--7--7-7-7--7--7-7-|-7--7-7-7--7--7-7-7--7--7-7-|
D|-x--x-x-x--x--x-x-x--x--x-x-|-x--x-x-x--x--x-x-x--x--x-x-|
A|-5--5-5-5--5--5-5-5--5--5-5-|-5--5-5-5--5--5-5-5--5--5-5-|
E|----------------------------|----------------------------|
 |Guitar 2                                                 |
e|----------------------------|----------------------------|
B|----------------------------|----------------------------|
G|-12--11--9--7-------9--7--5-|-----5--7--9-----9--11---12-|
D|--x---x--x--x-------x--x--x-|-----x--x--x-----x---x----x-|
A|-10---9--7--5-------7--5--3-|-----3--5--7-----7---9---10-|
E|----------------------------|----------------------------|
 1.I'm dying to meet you here
[ Tab from: http://www.guitaretab.com/f/foo-fighters/137404.html ]
  Guitar 1
e|----------------------------|----------------------------|
B|----------------------------|----------------------------|
G|-7--7-7-7--7--7-7-7--7--7-7-|-7--7-7-7--7--7-7-7--7--7-7-|
D|-x--x-x-x--x--x-x-x--x--x-x-|-x--x-x-x--x--x-x-x--x--x-x-|
A|-5--5-5-5--5--5-5-5--5--5-5-|-5--5-5-5--5--5-5-5--5--5-5-|
E|----------------------------|----------------------------|
 |Guitar 2                                                 |
e|----------------------------|----------------------------|
B|----------------------------|----------------------------|
G|-12-12-12-12-12-12-12-12-12-|-11-11-11-11-11-11-11-11-11-|
D|--x--x--x--x--x--x--x--x--x-|--x--x--x--x--x--x--x--x--x-|
A|-10-10-10-10-10-10-10-10-10-|--9--9--9--9--9--9--9--9--9-|
E|----------------------------|----------------------------|

  Guitar 1
e|----------------------------|
B|----------------------------|
G|-7--7-7-7--7--7-7-7--7--7-7-|
D|-x--x-x-x--x--x-x-x--x--x-x-|
A|-5--5-5-5--5--5-5-5--5--5-5-|
E|----------------------------|
 |Guitar 2                    |
e|----------------------------|
B|----------------------------|
G|-11-11-11-11-11-11-11-11-11-|
D|--x--x--x--x--x--x--x--x--x-|
A|--9--9--9--9--9--9--9--9--9-|
E|----------------------------|

CHORUS
  Guitars 1 & 2
e|-----------|-----------|-----------|-----------|
B|-3---3-----|-----------|-3---3-----|-----------|
G|-0---0-----|-7---7-----|-0---0-----|-7---7-----|
D|-2---2-----|-7---7-----|-2---2-----|-7---7-----|
A|-3---3-----|-5---5-----|-3---3-----|-5---5-----|
E|-----------|-----------|-----------|-----------|
 1.We'll gather around the fire, and I will lead the choir
 
  Guitars 1 & 2
e|-----------|-----------|-----------|-----------|-----------|
B|-3---3-----|-----------|-----------|-3---3-----|-----------|
G|-0---0-----|-0---0-----|-7---7-----|-0---0-----|-0---0-----|
D|-2---2-----|-0---0-----|-7---7-----|-2---2-----|-0---0-----|
A|-3---3-----|-2---2-----|-5---5-----|-3---3-----|-2---2-----|
E|-----------|-3---3-----|-----------|-----------|-3---3-----|
 1.Sing farewell, see you in hell

INTERLUDE
  Guitar 1
e|----------------------------|
B|----------------------------|
G|-7--7-7-7--7--7-7-7--7--7-7-|
D|-x--x-x-x--x--x-x-x--x--x-x-|
A|-5--5-5-5--5--5-5-5--5--5-5-|
E|----------------------------|
 |Guitar 2                    |  x4
e|----------------------------|
B|----------------------------|
G|-11-11-11-11-11-11-11-11-11-|
D|--x--x--x--x--x--x--x--x--x-|
A|--9--9--9--9--9--9--9--9--9-|
E|----------------------------|

OUTRO
  Guitar 1
e|----------------------------|----------------------------|
B|----------------------------|----------------------------|
G|-7--7-7-7--7--7-7-7--7--7-7-|-7--7-7-7--7--7-7-7--7--7-7-|
D|-x--x-x-x--x--x-x-x--x--x-x-|-x--x-x-x--x--x-x-x--x--x-x-|
A|-5--5-5-5--5--5-5-5--5--5-5-|-5--5-5-5--5--5-5-5--5--5-5-|
E|----------------------------|----------------------------|
 |Guitar 2                                                 | x4
e|----------------------------|----------------------------|
B|----------------------------|----------------------------|
G|-14-------14----------14----|-14-------14----------14----|
D|--x--------x-----------x----|--x--------x-----------x----|
A|-12-------12----------12----|-12-------12----------12----|
E|----------------------------|----------------------------|
Related for Hell tab
Advertisement will be closed in 10 seconds