Guitaretab - guitar tabs
Song name
# A B C D E F G H I J K L M N O P Q R S T U V W X Y Z

Foo Fighters - Sign tab

Song:       The Sign
Artist:     Foo Fighters
Album:      In Your Honour
Tuning:     Standard - EADGBe

	This is only my second tab but I have listened to this song loads as I really
like it and Iím sure itís right.  I saw another tab which helped me out but there were
still some mistakes in it. Enjoy.

Intro:

   D                                                D
e|-9--9--9-10-10-10-10--9--9--7--7--7--7--7--7--7-|-9--9--9-10-10-10-10--9--9--7--7--7--7--7--7--7-|
B|------------------------------------------------|------------------------------------------------|
G|------------------------------------------------|------------------------------------------------|
D|------------------------------------------------|------------------------------------------------|
A|------------------------------------------------|------------------------------------------------|
E|------------------------------------------------|------------------------------------------------|
 |                                                                                                 |
 |                                                                                                 |
e|------------------------------------------------|------------------------------------------------|
B|------------------------------------------------|------------------------------------------------|
G|-7-~-~------------------------------------------|------------------------------------------------|
D|-7-~-~-Let-ring---------------------------------|------------------------------------------------|
A|-5-~-~------------------------------------------|------------------------------------------------|
E|------------------------------------------------|------------------------------------------------|


   D                                                D
e|-9--9--9-10-10-10-10--9--9--7--7--7--7--7--7--7-|-9--9--9-10-10-10-10--9--9--7--7--7--7--7--7--7-|
B|------------------------------------------------|------------------------------------------------|
G|------------------------------------------------|------------------------------------------------|
D|------------------------------------------------|------------------------------------------------|
A|------------------------------------------------|------------------------------------------------|
E|------------------------------------------------|------------------------------------------------|
 |                                                                                                 |
 |                                                                                                 |
e|------------------------------------------------|------------------------------------------------|
B|------------------------------------------------|------------------------------------------------|
G|-7--7--7--7--7--7--7--7--7--7--7--7--7--7--7--7-|-7--7--7--7--7--7--7--7--7--7--7--7--7--7--7--7-|
D|-7--7--7--7--7--7--7--7--7--7--7--7--7--7--7--7-|-7--7--7--7--7--7--7--7--7--7--7--7--7--7--7--7-|
A|-5--5--5--5--5--5--5--5--5--5--5--5--5--5--5--5-|-5--5--5--5--5--5--5--5--5--5--5--5--5--5--5--5-|
E|------------------------------------------------|------------------------------------------------|


   D                                                D
e|------------------------------------------------|------------------------------------------------|
B|------------------------------------------------|------------------------------------------------|
G|------------------------------------------------|------------------------------------------------|
D|12--0-12--0-12--0-12--0-12--0-12--0-12--0-12--0-|12--0-12--0-12--0-12--0-12--0-12--0-12--0-12--0-|
A|12--0-12--0-12--0-12--0-12--0-12--0-12--0-12--0-|12--0-12--0-12--0-12--0-12--0-12--0-12--0-12--0-|
E|10--0-10--0-10--0-10--0-10--0-10--0-10--0-10--0-|10--0-10--0-10--0-10--0-10--0-10--0-10--0-10--0-|
 |                                                                                                 |
 |                                                                                                 |
e|------------------------------------------------|------------------------------------------------|
B|------------------------------------------------|------------------------------------------------|
G|------------------------------------------------|------------------------------------------------|
D|12--0-12--0-12--0-12--0-12--0-12--0-12--0-12--0-|12--0-12--0-12--0-12--0-12--0-12--0-12--0-12--0-|
A|12--0-12--0-12--0-12--0-12--0-12--0-12--0-12--0-|12--0-12--0-12--0-12--0-12--0-12--0-12--0-12--0-|
E|10--0-10--0-10--0-10--0-10--0-10--0-10--0-10--0-|10--0-10--0-10--0-10--0-10--0-10--0-10--0-10--0-|


   D                                                D
e|------------------------------------------------|------------------------------------------------|
B|------------------------------------------------|------------------------------------------------|
G|------------------------------------------------|------------------------------------------------|
D|12--0-12--0-12--0-12--0-12--0-12--0-12--0-12--0-|12--0-12--0-12--0-12--0-12--0-12--0-12--0-12--0-|
A|12--0-12--0-12--0-12--0-12--0-12--0-12--0-12--0-|12--0-12--0-12--0-12--0-12--0-12--0-12--0-12--0-|
E|10--0-10--0-10--0-10--0-10--0-10--0-10--0-10--0-|10--0-10--0-10--0-10--0-10--0-10--0-10--0-10--0-|
 |                                                                                                 |
 |                                                                                                 |
e|------------------------------------------------|------------------------------------------------|
B|------------------------------------------------|------------------------------------------------|
G|------------------------------------------------|------------------------------------------------|
D|12--0-12--0-12--0-12--0-12--0-12--0-12--0-12--0-|12--0-12--0-12--0-12--0-12--0-12--0-12--0-12--0-|
A|12--0-12--0-12--0-12--0-12--0-12--0-12--0-12--0-|12--0-12--0-12--0-12--0-12--0-12--0-12--0-12--0-|
E|10--0-10--0-10--0-10--0-10--0-10--0-10--0-10--0-|10--0-10--0-10--0-10--0-10--0-10--0-10--0-10--0-|


Verse:


   D                                                D
e|-9--9--9-10-10-10-10--9--9--7--7--7--7--7--7--7-|-9--9--9-10-10-10-10--9--9--7--7--7--7--7--7--7-|
B|------------------------------------------------|------------------------------------------------|
G|------------------------------------------------|------------------------------------------------|
D|------------------------------------------------|------------------------------------------------|
A|------------------------------------------------|------------------------------------------------|
E|------------------------------------------------|------------------------------------------------|
 |                                                                                                 |
 |1. I got superstition...                        ...ruling my decision...                         |
 |2. Walking on the ladders...                    ...nothing really matters...                     |
 |                                                                                                 |
e|------------------------------------------------|------------------------------------------------|
B|------------------------------------------------|------------------------------------------------|
G|-7--7--7--7--7--7--7--7--7--7--7--7--7--7--7--7-|-7--7--7--7--7--7--7--7--7--7--7--7--7--7--7--7-|
D|-7--7--7--7--7--7--7--7--7--7--7--7--7--7--7--7-|-7--7--7--7--7--7--7--7--7--7--7--7--7--7--7--7-|
A|-5--5--5--5--5--5--5--5--5--5--5--5--5--5--5--5-|-5--5--5--5--5--5--5--5--5--5--5--5--5--5--5--5-|
E|------------------------------------------------|------------------------------------------------|


   G                                                G
e|-9--9--9-10-10-10-10--9--9--7--7--7--7--7--7--7-|-9--9--9-10-10-10-10--9--9--7--7--7--7--7--7--7-|
B|------------------------------------------------|------------------------------------------------|
G|------------------------------------------------|------------------------------------------------|
D|------------------------------------------------|------------------------------------------------|
A|------------------------------------------------|------------------------------------------------|
E|------------------------------------------------|------------------------------------------------|
 |                                                                                                 |
 |...you are my remission...                      ...havenít got a plan.                           |
 |...there could be disaster...                   ...I donít really care.                          |
 |                                                                                                 |
e|------------------------------------------------|------------------------------------------------|
B|------------------------------------------------|------------------------------------------------|
G|------------------------------------------------|------------------------------------------------|
D|-5--5--5--5--5--5--5--5--5--5--5--5--5--5--5--5-|-5--5--5--5--5--5--5--5--5--5--5--5--5--5--5--5-|
A|-5--5--5--5--5--5--5--5--5--5--5--5--5--5--5--5-|-5--5--5--5--5--5--5--5--5--5--5--5--5--5--5--5-|
E|-3--3--3--3--3--3--3--3--3--3--3--3--3--3--3--3-|-3--3--3--3--3--3--3--3--3--3--3--3--3--3--3--3-|


   D                                                D
e|-9--9--9-10-10-10-10--9--9--7--7--7--7--7--7--7-|-9--9--9-10-10-10-10--9--9--7--7--7--7--7--7--7-|
B|------------------------------------------------|------------------------------------------------|
G|------------------------------------------------|------------------------------------------------|
D|------------------------------------------------|------------------------------------------------|
A|------------------------------------------------|------------------------------------------------|
E|------------------------------------------------|------------------------------------------------|
 |                                                                                                 |
 |So just gimme the sign Iíll follow you...       ...and every angel guarding you...               |
 |So just gimme the sign Iíll follow you...       ...and every angel guarding you...               |
 |                                                                                                 |
e|------------------------------------------------|------------------------------------------------|
B|------------------------------------------------|------------------------------------------------|
G|-7--7--7--7--7--7--7--7--7--7--7--7--7--7--7--7-|-7--7--7--7--7--7--7--7--7--7--7--7--7--7--7--7-|
D|-7--7--7--7--7--7--7--7--7--7--7--7--7--7--7--7-|-7--7--7--7--7--7--7--7--7--7--7--7--7--7--7--7-|
A|-5--5--5--5--5--5--5--5--5--5--5--5--5--5--5--5-|-5--5--5--5--5--5--5--5--5--5--5--5--5--5--5--5-|
E|------------------------------------------------|------------------------------------------------|


   G                                                G
e|-9--9--9-10-10-10-10--9--9--7--7--7--7--7--7--7-|-9--9--9-10-10-10-10--9--9--7--7--7--7--7--7--7-|
B|------------------------------------------------|------------------------------------------------|
G|------------------------------------------------|------------------------------------------------|
D|------------------------------------------------|------------------------------------------------|
A|------------------------------------------------|------------------------------------------------|
E|------------------------------------------------|------------------------------------------------|
 |                                                                                                 |
 |...you are my revision...                       ...havenít got a plan.                           |
 |...there could be disaster...                   ...I donít really care.                          |
 |                                                                                                 |
e|------------------------------------------------|------------------------------------------------|
B|------------------------------------------------|------------------------------------------------|
G|------------------------------------------------|------------------------------------------------|
D|-5--5--5--5--5--5--5--5--5--5--5--5--5--5--5--5-|-5--5--5--5--5--5--5--5--5--5--5--5--5--5--5--5-|
A|-5--5--5--5--5--5--5--5--5--5--5--5--5--5--5--5-|-5--5--5--5--5--5--5--5--5--5--5--5--5--5--5--5-|
E|-3--3--3--3--3--3--3--3--3--3--3--3--3--3--3--3-|-3--3--3--3--3--3--3--3--3--3--3--3--3--3--3--3-|


Pre-Chorus:


   Bm                      A                        G                       E
e|------------------------------------------------|------------------------------------------------|
B|------------------------------------------------|------------------------------------------------|
G|------------------------------------------------|------------------------------------------------|
D|-9--9--9--9--9--9--9--9--7--7--7--7--7--7--7--7-|-5--5--5--5--5--5--5--5--2--2--2--2--2--2--2--2-|
A|-9--9--9--9--9--9--9--9--7--7--7--7--7--7--7--7-|-5--5--5--5--5--5--5--5--2--2--2--2--2--2--2--2-|
E|-7--7--7--7--7--7--7--7--5--5--5--5--5--5--5--5-|-3--3--3--3--3--3--3--3--0--0--0--0--0--0--0--0-|
 |                                                                                                 |
 |I donít want a way to save your life...                                                          |
 |                                                                                                 |
e|------------------------------------------------|------------------------------------------------|
B|------------------------------------------------|------------------------------------------------|
G|------------------------------------------------|------------------------------------------------|
D|-9--9--9--9--9--9--9--9--7--7--7--7--7--7--7--7-|-5--5--5--5--5--5--5--5--2--2--2--2--2--2--2--2-|
A|-9--9--9--9--9--9--9--9--7--7--7--7--7--7--7--7-|-5--5--5--5--5--5--5--5--2--2--2--2--2--2--2--2-|
E|-7--7--7--7--7--7--7--7--5--5--5--5--5--5--5--5-|-3--3--3--3--3--3--3--3--0--0--0--0--0--0--0--0-|

[ Tab from: http://www.guitaretab.com/f/foo-fighters/138352.html ]
   Bm                      A                        G
e|------------------------------------------------|------------------------------------------------|
B|------------------------------------------------|------------------------------------------------|
G|------------------------------------------------|------------------------------------------------|
D|-9--9--9--9--9--9--9--9--7--7--7--7--7--7--7--7-|-5--5--5--5--5--5--5--5--5--5--5--5--5--5--5--5-|
A|-9--9--9--9--9--9--9--9--7--7--7--7--7--7--7--7-|-5--5--5--5--5--5--5--5--5--5--5--5--5--5--5--5-|
E|-7--7--7--7--7--7--7--7--5--5--5--5--5--5--5--5-|-3--3--3--3--3--3--3--3--3--3--3--3--3--3--3--3-|
 |                                                                                                 |
 |...think I know a way to make things right.                                                      |
 |                                                                                                 |
e|------------------------------------------------|------------------------------------------------|
B|------------------------------------------------|------------------------------------------------|
G|------------------------------------------------|------------------------------------------------|
D|-9--9--9--9--9--9--9--9--7--7--7--7--7--7--7--7-|-5--5--5--5--5--5--5--5--5--5--5--5--5--5--5--5-|
A|-9--9--9--9--9--9--9--9--7--7--7--7--7--7--7--7-|-5--5--5--5--5--5--5--5--5--5--5--5--5--5--5--5-|
E|-7--7--7--7--7--7--7--7--5--5--5--5--5--5--5--5-|-3--3--3--3--3--3--3--3--3--3--3--3--3--3--3--3-|


Chorus:


   D                                                D
e|-9--9--9-10-10-10-10--9--9--7--7--7--2--2--2--2/|-9--9--9-10-10-10-10--9--9--7--7--7--2--2--2--2/|
B|------------------------------------------------|------------------------------------------------|
G|------------------------------------------------|------------------------------------------------|
D|------------------------------------------------|------------------------------------------------|
A|------------------------------------------------|------------------------------------------------|
E|------------------------------------------------|------------------------------------------------|
 |                                                                                                 |
 |Just gimme the sign Iíll come for you...        ...gimme the sign Iíll be your rescue...         |
 |Gimme the sign Iíll come for you...             ...gimme the sign Iíll be your rescue...         |
 |                                                                                                 |
e|------------------------------------------------|------------------------------------------------|
B|------------------------------------------------|------------------------------------------------|
G|-7--7--7--7--7--7--7--7--7--7--7--7--7--7--7--7-|-7--7--7--7--7--7--7--7--7--7--7--7--7--7--7--7-|
D|-7--7--7--7--7--7--7--7--7--7--7--7--7--7--7--7-|-7--7--7--7--7--7--7--7--7--7--7--7--7--7--7--7-|
A|-5--5--5--5--5--5--5--5--5--5--5--5--5--5--5--5-|-5--5--5--5--5--5--5--5--5--5--5--5--5--5--5--5-|
E|------------------------------------------------|------------------------------------------------|


   G                                                E                       G
e|-9--9--9-10-10-10-10--9--9--7--7--7--2--2--2--2/|-0--0--0--0--0--0--0--0--3--3--3--3--3--3--3--3-|
B|------------------------------------------------|------------------------------------------------|
G|------------------------------------------------|------------------------------------------------|
D|------------------------------------------------|------------------------------------------------|
A|------------------------------------------------|------------------------------------------------|
E|------------------------------------------------|------------------------------------------------|
 |                                                                                                 |
 |...maybe Iíll run away...                       ...when I hear you calling me.                   |
 |...maybe Iíll run away...                       ...when I hear you calling out for me.           |
 |                                                                                                 |
e|------------------------------------------------|------------------------------------------------|
B|------------------------------------------------|------------------------------------------------|
G|------------------------------------------------|------------------------------------------------|
D|-5--5--5--5--5--5--5--5--5--5--5--5--5--5--5--5-|-2--2--2--2--2--2--2--2--5--5--5--5--5--5--5--5-|
A|-5--5--5--5--5--5--5--5--5--5--5--5--5--5--5--5-|-2--2--2--2--2--2--2--2--5--5--5--5--5--5--5--5-|
E|-3--3--3--3--3--3--3--3--3--3--3--3--3--3--3--3-|-0--0--0--0--0--0--0--0--3--3--3--3--3--3--3--3-|


Small Bridge:


   D                                                D
e|------------------------------------------------|------------------------------------------------|
B|------------------------------------------------|------------------------------------------------|
G|------------------------------------------------|------------------------------------------------|
D|12--0-12--0-12--0-12--0-12--0-12--0-12--0-12--0-|12--0-12--0-12--0-12--0-12--0-12--0-12--0-12--0-|
A|12--0-12--0-12--0-12--0-12--0-12--0-12--0-12--0-|12--0-12--0-12--0-12--0-12--0-12--0-12--0-12--0-|
E|10--0-10--0-10--0-10--0-10--0-10--0-10--0-10--0-|10--0-10--0-10--0-10--0-10--0-10--0-10--0-10--0-|
 |                                                                                                 |
 |                                                                                                 |
e|------------------------------------------------|------------------------------------------------|
B|------------------------------------------------|------------------------------------------------|
G|------------------------------------------------|------------------------------------------------|
D|12--0-12--0-12--0-12--0-12--0-12--0-12--0-12--0-|12--0-12--0-12--0-12--0-12--0-12--0-12--0-12--0-|
A|12--0-12--0-12--0-12--0-12--0-12--0-12--0-12--0-|12--0-12--0-12--0-12--0-12--0-12--0-12--0-12--0-|
E|10--0-10--0-10--0-10--0-10--0-10--0-10--0-10--0-|10--0-10--0-10--0-10--0-10--0-10--0-10--0-10--0-|


Repeat Verse, Pre-Chorus and Chorus, then go to Bridge.


Bridge:


   Bm                      A                        G                       E
e|-7--7--7--7--7--7--7--7--5--5--5--5--7--5--5--5-|-3--3--3--3--3--3--3--3--4--4--4--4--5--4--2--0-|
B|------------------------------------------------|------------------------------------------------|
G|------------------------------------------------|------------------------------------------------|
D|------------------------------------------------|------------------------------------------------|
A|------------------------------------------------|------------------------------------------------|
E|------------------------------------------------|------------------------------------------------|
 |                                                                                                 |
 |...me...                                                                                         |
 |                                                                                                 |
e|------------------------------------------------|------------------------------------------------|
B|------------------------------------------------|------------------------------------------------|
G|------------------------------------------------|------------------------------------------------|
D|-9--9--9--9--9--9--9--9--7--7--7--7--7--7--7--7-|-5--5--5--5--5--5--5--5--2--2--2--2--2--2--2--2-|
A|-9--9--9--9--9--9--9--9--7--7--7--7--7--7--7--7-|-5--5--5--5--5--5--5--5--2--2--2--2--2--2--2--2-|
E|-7--7--7--7--7--7--7--7--5--5--5--5--5--5--5--5-|-3--3--3--3--3--3--3--3--0--0--0--0--0--0--0--0-|


   Bm                      A                        G                       E
e|-7--7--7--7--7--7--7--7--5--5--5--5--7--5--5--5-|-3--3--3--3--3--3--3--3--4--4--4--4--5--4--2--0-|
B|------------------------------------------------|------------------------------------------------|
G|------------------------------------------------|------------------------------------------------|
D|------------------------------------------------|------------------------------------------------|
A|------------------------------------------------|------------------------------------------------|
E|------------------------------------------------|------------------------------------------------|
 |                                                                                                 |
 |...for me...                                                                                     |
 |                                                                                                 |
e|------------------------------------------------|------------------------------------------------|
B|------------------------------------------------|------------------------------------------------|
G|------------------------------------------------|------------------------------------------------|
D|-9--9--9--9--9--9--9--9--7--7--7--7--7--7--7--7-|-5--5--5--5--5--5--5--5--2--2--2--2--2--2--2--2-|
A|-9--9--9--9--9--9--9--9--7--7--7--7--7--7--7--7-|-5--5--5--5--5--5--5--5--2--2--2--2--2--2--2--2-|
E|-7--7--7--7--7--7--7--7--5--5--5--5--5--5--5--5-|-3--3--3--3--3--3--3--3--0--0--0--0--0--0--0--0-|


   Bm                      A                        G                       E
e|-7--7--7--7--7--7--7--7--5--5--5--5--7--5--5--5-|-3--3--3--3--3--3--3--3--4--4--4--4--5--4--2--0-|
B|------------------------------------------------|------------------------------------------------|
G|------------------------------------------------|------------------------------------------------|
D|------------------------------------------------|------------------------------------------------|
A|------------------------------------------------|------------------------------------------------|
E|------------------------------------------------|------------------------------------------------|
 |                                                                                                 |
 |I donít want a way to save your life...                                                          |
 |                                                                                                 |
e|------------------------------------------------|------------------------------------------------|
B|------------------------------------------------|------------------------------------------------|
G|------------------------------------------------|------------------------------------------------|
D|-9--9--9--9--9--9--9--9--7--7--7--7--7--7--7--7-|-5--5--5--5--5--5--5--5--2--2--2--2--2--2--2--2-|
A|-9--9--9--9--9--9--9--9--7--7--7--7--7--7--7--7-|-5--5--5--5--5--5--5--5--2--2--2--2--2--2--2--2-|
E|-7--7--7--7--7--7--7--7--5--5--5--5--5--5--5--5-|-3--3--3--3--3--3--3--3--0--0--0--0--0--0--0--0-|


   Bm                      A                        G
e|-7--7--7--7--7--7--7--7--5--5--5--5--7--5--5--5-|-3--3--3--3--3--3--3--3--3--3--3--3--3--3--3--3-|
B|------------------------------------------------|------------------------------------------------|
G|------------------------------------------------|------------------------------------------------|
D|------------------------------------------------|------------------------------------------------|
A|------------------------------------------------|------------------------------------------------|
E|------------------------------------------------|------------------------------------------------|
 |                                                                                                 |
 |...think I know a way to make things right.                                                      |
 |                                                                                                 |
e|------------------------------------------------|------------------------------------------------|
B|------------------------------------------------|------------------------------------------------|
G|------------------------------------------------|------------------------------------------------|
D|-9--9--9--9--9--9--9--9--7--7--7--7--7--7--7--7-|-5--5--5--5--5--5--5--5--5--5--5--5--5--5--5--5-|
A|-9--9--9--9--9--9--9--9--7--7--7--7--7--7--7--7-|-5--5--5--5--5--5--5--5--5--5--5--5--5--5--5--5-|
E|-7--7--7--7--7--7--7--7--5--5--5--5--5--5--5--5-|-3--3--3--3--3--3--3--3--3--3--3--3--3--3--3--3-|


   D                                                D
e|-9--9--9-10-10-10-10--9--9--7--7--7--7--7--7--7-|-9--9--9-10-10-10-10--9--9--7--7--7--7--7--7--7-|
B|------------------------------------------------|------------------------------------------------|
G|------------------------------------------------|------------------------------------------------|
D|------------------------------------------------|------------------------------------------------|
A|------------------------------------------------|------------------------------------------------|
E|------------------------------------------------|------------------------------------------------|
 |                                                                                                 |
 |Just gimme the sign...                          ...gimme the sign...                             |
 |                                                                                                 |
e|------------------------------------------------|------------------------------------------------|
B|------------------------------------------------|------------------------------------------------|
G|-7-~-~------------------------------------------|------------------------------------------------|
D|-7-~-~-Let-ring---------------------------------|------------------------------------------------|
A|-5-~-~------------------------------------------|------------------------------------------------|
E|------------------------------------------------|------------------------------------------------|


   D                                                D
e|-9--9--9-10-10-10-10--9--9--7--7--7--7--7--7--7-|-9--9--9-10-10-10-10--9--9--7--7--7--7--7--7--7-|
B|------------------------------------------------|------------------------------------------------|
G|------------------------------------------------|------------------------------------------------|
D|------------------------------------------------|------------------------------------------------|
A|------------------------------------------------|------------------------------------------------|
E|------------------------------------------------|------------------------------------------------|
 |                                                                                                 |
 |...gimme the sign...                            ...just gimme the sign.                          |
 |                                                                                                 |
e|------------------------------------------------|------------------------------------------------|
B|------------------------------------------------|------------------------------------------------|
G|-7--7--7--7--7--7--7--7--7--7--7--7--7--7--7--7-|-7--7--7--7--7--7--7--7--7--7--7--7--7--7--7--7-|
D|-7--7--7--7--7--7--7--7--7--7--7--7--7--7--7--7-|-7--7--7--7--7--7--7--7--7--7--7--7--7--7--7--7-|
A|-5--5--5--5--5--5--5--5--5--5--5--5--5--5--5--5-|-5--5--5--5--5--5--5--5--5--5--5--5--5--5--5--5-|
E|------------------------------------------------|------------------------------------------------|


Repeat Chorus twice and then Small Bridge, end on a D chord sliding down fast.
Related for Sign tab