Guitaretab - guitar tabs
Song name
# A B C D E F G H I J K L M N O P Q R S T U V W X Y Z

Foo Fighters - Pretender tab

  TheBy The Foo Fighters Pretender


Intro/Verse
Guitar 1
e||----------------7------------------|----------------------------------||
B||------------10-----10--------------|---10-----10-----10---------------||
G||---------9-------------9-----------|----9------9------9---------------||
D||-----10-------------------10-------|---10-----10-----10---------------||
A||--0------------------------------0-|--------------0------9------------||
E||-----------------------------------|7------8--------------------------||

e||-----------------------------------|----------------------------------||
B||-------------10--------------------|-------10-------------------------||
G||----------9------------------------|----9-----------------------------||
D||------10---------------------------|10--------------------------------||
A||---------------(9)-9b--9--8--------|----------------------------------||
E||-----------------------------------|----------------------------------||
    Keep   you    in  the   dark.        You   know   they all
e||----------------7------------------|----------------------------------||
B||------------10-----10--------------|---10-----10-----10---------------||
G||---------9-------------9-----------|----9------9------9---------------||
D||-----10-------------------10-------|---10-----10-----10---------------||
A||--0------------------------------0-|--------------0------9------------||
E||-----------------------------------|7------8--------------------------||
                   pretend.
e||-----------------------------------|----------------------------------||
B||-------------10--------------------|-------10-------------------------||
G||----------9------------------------|----9-----------------------------||
D||------10---------------------------|10--------------------------------||
A||---------------(9)-9b--9--8--------|----------------------------------||
E||-----------------------------------|----------------------------------||

    Keep   you    in  the   dark.         And    so     it all
e||----------------7------------------|----------------------------------||
B||------------10-----10--------------|---10-----10-----10---------------||
G||---------9-------------9-----------|----9------9------9---------------||
D||-----10-------------------10-------|---10-----10-----10---------------||
A||--0------------------------------0-|--------------0------9------------||
E||-----------------------------------|7------8--------------------------||
                   began.
e||-----------------------------------|----------------------------------||
B||-------------10--------------------|-------10-------------------------||
G||----------9------------------------|----9-----------------------------||
D||------10---------------------------|10--------------------------------||
A||---------------(9)-9b--9--8--------|----------------------------------||
E||-----------------------------------|----------------------------------||

Intro/Verse 2
Guitar 1
e||--0-0-2-0-3-0-5-0---0-2-0-3-0-5----|--0-2-0-3-0-5-0-0-2-0-3-0-5-------||
B||--5-5-5-5-5-5-5-5---5-5-5-5-5-5----|--5-5-5-5-5-5-5-5-5-5-5-5-5-------||
G||-----------------------------------|----------------------------------||
D||-----------------------------------|----------------------------------||
A||-----------------------------------|----------------------------------||
E||-----------------------------------|----------------------------------||

Verse 
Guitar 2 (Palm Mute these chords the 4th time round}
        Send in your skeletons.            Sing as their bones come
e||--0-0--------------0-0-0-0---------|--0-0--------------0-0-0-0--------||
B||--1-1--------------1-1-1-1---------|--1-1--------------1-1-1-1--------||
G||--2-2--------------2-2-2-2---------|--2-2--------------2-2-2-2--------||
D||--2-2--------------2-2-2-2---------|--2-2--------------2-2-2-2--------||
A||--0-0--------------0-0-0-0---------|--0-0--------------0-0-0-0--------||
E||-----------------------------------|----------------------------------||

Guitar 1
e||--0-0-2-0-3-0-5-0---0-2-0-3-0-5----|--0-2-0-3-0-5-0-0-2-0-3-0-5-------||
B||--5-5-5-5-5-5-5-5---5-5-5-5-5-5----|--5-5-5-5-5-5-5-5-5-5-5-5-5-------||
G||-----------------------------------|----------------------------------||
D||-----------------------------------|----------------------------------||
A||-----------------------------------|----------------------------------||
E||-----------------------------------|----------------------------------||

Guitar 2      marching in...                Again.
e||-----------------------------------|--1-1-------------1-1-1-1---------|| 
B||--3-3--------------3-3-3-3---------|--1-1-------------1-1-1-1---------||
G||--2-2--------------2-2-2-2---------|--2-2-------------2-2-2-2---------|| 
D||--0-0--------------0-0-0-0---------|--3-3-------------3-3-3-3---------||
A||--0-0--------------0-0-0-0---------|--3-3-------------3-3-3-3---------||
E||--2-2--------------2-2-2-2---------|--1-1-------------1-1-1-1---------||

Guitar 1
e||--0-0-2-0-3-0-5-0---0-2-0-3-0-5----|--0-2-0-3-0-5-0-0-2-0-3-0-5-------||
B||--5-5-5-5-5-5-5-5---5-5-5-5-5-5----|--5-5-5-5-5-5-5-5-5-5-5-5-5-------||
G||-----------------------------------|----------------------------------||
D||-----------------------------------|----------------------------------||
A||-----------------------------------|----------------------------------||
E||-----------------------------------|----------------------------------||

Guitar 2
    The need you buried deep.          The secrets that you keep
e||--0-0--------------0-0-0-0---------|--0-0-------------0-0-0-0---------||
B||--1-1--------------1-1-1-1---------|--1-1-------------1-1-1-1---------||
G||--2-2--------------2-2-2-2---------|--2-2-------------2-2-2-2---------||
D||--2-2--------------2-2-2-2---------|--2-2-------------2-2-2-2---------||
A||--0-0--------------0-0-0-0---------|--0-0-------------0-0-0-0---------||
E||-----------------------------------|----------------------------------||

Guitar 1
e||--0-0-2-0-3-0-5-0---0-2-0-3-0-5----|--0-2-0-3-0-5-0-0-2-0-3-0-5-------||
B||--5-5-5-5-5-5-5-5---5-5-5-5-5-5----|--5-5-5-5-5-5-5-5-5-5-5-5-5-------||
G||-----------------------------------|----------------------------------||
D||-----------------------------------|----------------------------------||
A||-----------------------------------|----------------------------------||
E||-----------------------------------|----------------------------------||

Guitar 2
are ever        ready.                 Are    you   ready?  
e||-----------------------------------|--1-1-------------1-1-1-1---------|| 
B||--3-3--------------3-3-3-3---------|--1-1-------------1-1-1-1---------||
G||--2-2--------------2-2-2-2---------|--2-2-------------2-2-2-2---------|| 
D||--0-0--------------0-0-0-0---------|--3-3-------------3-3-3-3---------||
A||--0-0--------------0-0-0-0---------|--3-3-------------3-3-3-3---------||
E||--2-2--------------2-2-2-2---------|--1-1-------------1-1-1-1---------||






Guitar 1
e||--0-0-2-0-3-0-5-0---0-2-0-3-0-5----|--0-2-0-3-0-5-0-0-2-0-3-0-5-------||
B||--5-5-5-5-5-5-5-5---5-5-5-5-5-5----|--5-5-5-5-5-5-5-5-5-5-5-5-5-------||
G||-----------------------------------|----------------------------------||
D||-----------------------------------|----------------------------------||
A||-----------------------------------|----------------------------------||
E||-----------------------------------|----------------------------------||

Guitar 2
               Im finished making sense.         Done pleading ignorance
e||--0-0--------------0-0-0-0---------|--0-0-------------0-0-0-0---------||
B||--1-1--------------1-1-1-1---------|--1-1-------------1-1-1-1---------||
G||--2-2--------------2-2-2-2---------|--2-2-------------2-2-2-2---------||
D||--2-2--------------2-2-2-2---------|--2-2-------------2-2-2-2---------||
A||--0-0--------------0-0-0-0---------|--0-0-------------0-0-0-0---------||
E||-----------------------------------|----------------------------------|| 

Guitar 1
e||--0-0-2-0-3-0-5-0---0-2-0-3-0-5----|--0-2-0-3-0-5-0-0-2-0-3-0-5-------||
B||--5-5-5-5-5-5-5-5---5-5-5-5-5-5----|--5-5-5-5-5-5-5-5-5-5-5-5-5-------||
G||-----------------------------------|----------------------------------||
D||-----------------------------------|----------------------------------||
A||-----------------------------------|----------------------------------||
E||-----------------------------------|----------------------------------||

Guitar 2
That old                          defense
e||-----------------------------------|--1-1-------------1-1-1-1---------|| 
B||--3-3--------------3-3-3-3---------|--1-1-------------1-1-1-1---------||
G||--2-2--------------2-2-2-2---------|--2-2-------------2-2-2-2---------|| 
D||--0-0--------------0-0-0-0---------|--3-3-------------3-3-3-3---------||
A||--0-0--------------0-0-0-0---------|--3-3-------------3-3-3-3---------||
E||--2-2--------------2-2-2-2---------|--1-1-------------1-1-1-1---------||

Guitar 1
e||--0-0-2-0-3-0-5-0---0-2-0-3-0-5----|--0-2-0-3-0-5-0-0-2-0-3-0-5-------||
B||--5-5-5-5-5-5-5-5---5-5-5-5-5-5----|--5-5-5-5-5-5-5-5-5-5-5-5-5-------||
G||-----------------------------------|----------------------------------||
D||-----------------------------------|----------------------------------||
A||-----------------------------------|----------------------------------||
E||-----------------------------------|----------------------------------||

Guitar 2
       Spinning     infinity         but,  the wheel is spinning me
e||000-0000000000000000-0-0-00000000000000-000000000000000-0-0-0000000000||             
B||--1-1--------------1-1-1-1---------|--1-1-------------1-1-1-1---------||
G||--2-2--------------2-2-2-2---------|--2-2-------------2-2-2-2---------||
D||--2-2--------------2-2-2-2---------|--2-2-------------2-2-2-2---------||
A||--0-0--------------0-0-0-0---------|--0-0-------------0-0-0-0---------||
E||-----------------------------------|----------------------------------||

Guitar 1
e||--0-0-2-0-3-0-5-0---0-2-0-3-0-5----|--0-2-0-3-0-5-0-0-2-0-3-0-5-------||
B||--5-5-5-5-5-5-5-5---5-5-5-5-5-5----|--5-5-5-5-5-5-5-5-5-5-5-5-5-------||
G||-----------------------------------|----------------------------------||
D||-----------------------------------|----------------------------------||
A||-----------------------------------|----------------------------------||
E||-----------------------------------|----------------------------------||







Guitar 2
Its never ending.                       Never ending
e||000-0000000000000000-0-0-0000000000|000-000000000000000-0-0-0000000000||
B||--3-3--------------3-3-3-3---------|--1-1-------------1-1-1-1---------||
G||--2-2--------------2-2-2-2---------|--2-2-------------2-2-2-2---------|| 
D||--0-0--------------0-0-0-0---------|--3-3-------------3-3-3-3---------||
A||--0-0--------------0-0-0-0---------|--3-3-------------3-3-3-3---------||
E||--2-2--------------2-2-2-2---------|--1-1-------------1-1-1-1---------||
     
Guitar 1
e||--0-0-2-0-3-0-5-0---0-2-0-3-0-5----|--0-2-0-3-0-5-0-0-2-0-3-0-5-------||
B||--5-5-5-5-5-5-5-5---5-5-5-5-5-5----|--5-5-5-5-5-5-5-5-5-5-5-5-5-------||
G||-----------------------------------|----------------------------------||
D||-----------------------------------|----------------------------------||
A||-----------------------------------|----------------------------------||
E||-----------------------------------|----------------------------------||

Pre-Chorus
Guitar 1
    Same    old             story 
e|-----------------------------------------------------------------------||
B|-----------------------------------------------------------------------||
G|--7-7-7-7-9-9-9-9-11-11-11-11-12-12-12-12------------------------------||
D|--x-x-x-x-x-x-x-x-x-x-x-x-x-x-x-x------------------------------||
A|--5-5-5-5-7-7-7-7--9--9--9--9-10-10-10-10------------------------------||
E|-----------------------------------------------------------------------||

Chorus
Guitar 2
  What if I say Im not like the others? What if I say Im not just 
e||--7--7--7--7--7--7--7--7--7--7--7--|--7--7--7--7--7--7--7--7--7--7--7-||
B||-10-10-10-10-10-10-10-10-10-10-10--|-10-10-10-10-10-10-10-10-10-10-10-||
G||--9--9--9--9--9--9--9--9--9--9--9--|--9--9--9--9--9--9--9--9--9--9-9-||
D||-10-10-10-10-10-10-10-10-10-10-10--|-10-10-10-10-10-10-10-10-10-10-10-||
A||--0--0--0--0--0--0--0--0--0--0--0--|--0--0--0--0--0--0--0--0--0-0--0-||
E||-----------------------------------|----------------------------------||

Guitar 1
e||--0-0-0-0-0-0-0-0-0-0-0-0-0-0-0-0-0|0-0-0-0-0-0-0-0-0-0-0-0-0-0-0-0-0-||
B||--1-1-1-1-1-1-1-1-1-1-1-1-1-1-1-1-1|1-1-1-1-1-1-1-1-1-1-1-1-1-1-1-1-1-||
G||--2-2-2-2-2-2-2-2-2-2-2-2-2-2-2-2-2|2-2-2-2-2-2-2-2-2-2-2-2-2-2-2-2-2-||
D||--2-2-2-2-2-2-2-2-2-2-2-2-2-2-2-2-2|2-2-2-2-2-2-2-2-2-2-2-2-2-2-2-2-2-||
A||--0-0-0-0-0-0-0-0-0-0-0-0-0-0-0-0-0|0-0-0-0-0-0-0-0-0-0-0-0-0-0-0-0-0-||
E||-----------------------------------|----------------------------------||     

Guitar 2
   another on of your plays? Youre the pretender. What if I say I will
e||--7--7--7--7--7--7--7--7--7--7--7--|--7--7--7--7--7--7--7--7--7--7--7-||
B||-10-10-10-10-10-10-10-10-10-10-10--|-10-10-10-10-10-10-10-10-10-10-10-||
G||--9--9--9--9--9--9--9--9--9--9--9--|--9--9--9--9--9--9--9--9--9--9-9-||
D||-10-10-10-10-10-10-10-10-10-10-10--|-10-10-10-10-10-10-10-10-10-10-10-||
A||--0--0--0--0--0--0--0--0--0--0--0--|--0--0--0--0--0--0--0--0--0-0--0-||
E||-----------------------------------|----------------------------------||

Guitar 1
e||--0-0-0-0-0-0-0-0-0-0-0-0-0-0-0-0-|-0-0-0-0-0-0-0-0-0-0-0-0-0-0-0-0-0-||
B||--3-3-3-3-3-3-3-3-3-3-3-3-3-3-3-3-|-1-1-1-1-1-1-1-1-1-1-1-1-1-1-1-1-1-||
G||--2-2-2-2-2-2-2-2-2-2-2-2-2-2-2-2-|-0-0-0-0-0-0-0-0-0-0-0-0-0-0-0-0-0-||
D||--0-0-0-0-0-0-0-0-0-0-0-0-0-0-0-0-|-3-3-3-3-3-3-3-3-3-3-3-3-3-3-3-3-3-||
A||--0-0-0-0-0-0-0-0-0-0-0-0-0-0-0-0-|-3-3-3-3-3-3-3-3-3-3-3-3-3-3-3-3-3-||
E||--2-2-2-2-2-2-2-2-2-2-2-2-2-2-2-2-|-1-1-1-1-1-1-1-1-1-1-1-1-1-1-1-1-1-||




Guitar 2
   never surrender?
e||--7--7--7--7--7--------------------|----------------------------------||
B||-10-10-10-10-10--------------------|----------------------------------||
G||--9--9--9--9--9--------------------|----------------------------------||
D||-10-10-10-10-10--------------------|----------------------------------||
A||--0--0--0--0--0--------------------|----------------------------------||
E||-----------------------------------|----------------------------------||

Guitar 1
e||--0-0-0-0-0-0-0--------------------|----------------------------------||
B||--1-1-1-1-1-1-1--------------------|----------------------------------||
G||--2-2-2-2-2-2-2--------------------|----------------------------------||
D||--2-2-2-2-2-2-2--------------------|----------------------------------||
A||--0-0-0-0-0-0-0--------------------|----------------------------------||
E||-----------------------------------|----------------------------------||

Guitar 2
  What if I say Im not like the others? What if I say Im not just 
e||--7--7--7--7--7--7--7--7--7--7--7--|--7--7--7--7--7--7--7--7--7--7--7-||
B||-10-10-10-10-10-10-10-10-10-10-10--|-10-10-10-10-10-10-10-10-10-10-10-||
G||--9--9--9--9--9--9--9--9--9--9--9--|--9--9--9--9--9--9--9--9--9--9-9-||
D||-10-10-10-10-10-10-10-10-10-10-10--|-10-10-10-10-10-10-10-10-10-10-10-||
A||--0--0--0--0--0--0--0--0--0--0--0--|--0--0--0--0--0--0--0--0--0-0--0-||
E||-----------------------------------|----------------------------------||

Guitar 1
e||--0-0-0-0-0-0-0-0-0-0-0-0-0-0-0-0-|-0-0-0-0-0-0-0-0-0-0-0-0-0-0-0-0-0-||
B||--3-3-3-3-3-3-3-3-3-3-3-3-3-3-3-3-|-1-1-1-1-1-1-1-1-1-1-1-1-1-1-1-1-1-||
G||--2-2-2-2-2-2-2-2-2-2-2-2-2-2-2-2-|-0-0-0-0-0-0-0-0-0-0-0-0-0-0-0-0-0-||
D||--0-0-0-0-0-0-0-0-0-0-0-0-0-0-0-0-|-3-3-3-3-3-3-3-3-3-3-3-3-3-3-3-3-3-||
A||--0-0-0-0-0-0-0-0-0-0-0-0-0-0-0-0-|-3-3-3-3-3-3-3-3-3-3-3-3-3-3-3-3-3-||
E||--2-2-2-2-2-2-2-2-2-2-2-2-2-2-2-2-|-1-1-1-1-1-1-1-1-1-1-1-1-1-1-1-1-1-||

Guitar 2
   another on of your plays? Youre the pretender. What if I say I will
e||--7--7--7--7--7--7--7--7--7--7--7--|--7--7--7--7--7--7--7--7--7--7--7-||
B||-10-10-10-10-10-10-10-10-10-10-10--|-10-10-10-10-10-10-10-10-10-10-10-||
G||--9--9--9--9--9--9--9--9--9--9--9--|--9--9--9--9--9--9--9--9--9--9-9-||
D||-10-10-10-10-10-10-10-10-10-10-10--|-10-10-10-10-10-10-10-10-10-10-10-||
A||--0--0--0--0--0--0--0--0--0--0--0--|--0--0--0--0--0--0--0--0--0-0--0-||
E||-----------------------------------|----------------------------------||

Guitar 1
e||--0-0-0-0-0-0-0-0-0-0-0-0-0-0-0-0-0|0-0-0-0-0-0-0-0-0-0-0-0-0-0-0-0-0-||
B||--1-1-1-1-1-1-1-1-1-1-1-1-1-1-1-1-1|1-1-1-1-1-1-1-1-1-1-1-1-1-1-1-1-1-||
G||--2-2-2-2-2-2-2-2-2-2-2-2-2-2-2-2-2|2-2-2-2-2-2-2-2-2-2-2-2-2-2-2-2-2-||
D||--2-2-2-2-2-2-2-2-2-2-2-2-2-2-2-2-2|2-2-2-2-2-2-2-2-2-2-2-2-2-2-2-2-2-||
A||--0-0-0-0-0-0-0-0-0-0-0-0-0-0-0-0-0|0-0-0-0-0-0-0-0-0-0-0-0-0-0-0-0-0-||
E||-----------------------------------|----------------------------------||     

Guitar 2
   never surrender?
e||--7--7--7--7--7--------------------|----------------------------------||
B||-10-10-10-10-10--------------------|----------------------------------||
G||--9--9--9--9--9--------------------|----------------------------------||
D||-10-10-10-10-10--------------------|----------------------------------||
A||--0--0--0--0--0--------------------|----------------------------------||
E||-----------------------------------|----------------------------------||






Guitar 1
e||--0-0-0-0-0-0-0-0-0-0-0-0-0-0-0-0--|----------------------------------||
B||--3-3-3-3-3-3-3-3-3-3-3-3-3-3-3-3--|----------------------------------||
G||--2-2-2-2-2-2-2-2-2-2-2-2-2-2-2-2--|----------------------------------||
D||--0-0-0-0-0-0-0-0-0-0-0-0-0-0-0-0--|----------------------------------||
A||--0-0-0-0-0-0-0-0-0-0-0-0-0-0-0-0--|----------------------------------||
E||--2-2-2-2-2-2-2-2-2-2-2-2-2-2-2-2--|----------------------------------||

Verse 2
Guitar 2        In time or so Im told.             Im just another soul 
e||--0-0--------------0-0-0-0---------|--0-0-------------0-0-0-0---------||
B||--1-1--------------1-1-1-1---------|--1-1-------------1-1-1-1---------||
G||--2-2--------------2-2-2-2---------|--2-2-------------2-2-2-2---------||
D||--2-2--------------2-2-2-2---------|--2-2-------------2-2-2-2---------||
A||--0-0--------------0-0-0-0---------|--0-0-------------0-0-0-0---------||
E||-----------------------------------|----------------------------------|| 

   for sale.                                Oh well.
e||--0-0---------0-0-0-0--------------|--0-0------------0-0-0-0----------||
B||--3-3---------3-3-3-3--------------|--1-1------------1-1-1-1----------||
G||--2-2---------2-2-2-2--------------|--0-0------------0-0-0-0----------||
D||--0-0---------0-0-0-0--------------|--3-3------------3-3-3-3----------||
A||--0-0---------0-0-0-0--------------|--3-3------------3-3-3-3----------||
E||--2-2---------2-2-2-2--------------|--1-1------------1-1-1-1----------||
   The page is out of print.  We are not permanent.  Were temporary.
e||00000000000000000000000000000000000|0000000000000000000000000000000000||
B||-----------------------------------|----------------------------------||
G||-----------------------------------|----------------------------------||
D||-----------------------------------|----------------------------------||
A||-----------------------------------|----------------------------------||
E||-----------------------------------|----------------------------------||
   Temporary.
e||0000000000-------------------------|----------------------------------||
B||-----------------------------------|----------------------------------||
G||-----------------------------------|----------------------------------||
D||-----------------------------------|----------------------------------||
A||-----------------------------------|----------------------------------||
E||-----------------------------------|----------------------------------||

Guitar 1 
e||--0-0-2-0-3------------------------|----------------------------------||
B||--5-5-5-5-5------------------------|----------------------------------||
G||-----------------------------------|----------------------------------||
D||-----------------------------------|----------------------------------||
A||-----------------------------------|----------------------------------||
E||-----------------------------------|----------------------------------||

Pre-Chorus 2
    Same    old             story 
e|-----------------------------------------------------------------------||
B|-----------------------------------------------------------------------||
G|--7-7-7-7-9-9-9-9-11-11-11-11-12-12-12-12------------------------------||
D|--x-x-x-x-x-x-x-x-x-x-x-x-x-x-x-x------------------------------||
A|--5-5-5-5-7-7-7-7--9--9--9--9-10-10-10-10------------------------------||
E|-----------------------------------------------------------------------||










Chorus 2
Guitar 2
  What if I say Im not like the others? What if I say Im not just 
e||--7--7--7--7--7--7--7--7--7--7--7--|--7--7--7--7--7--7--7--7--7--7--7-||
B||-10-10-10-10-10-10-10-10-10-10-10--|-10-10-10-10-10-10-10-10-10-10-10-||
G||--9--9--9--9--9--9--9--9--9--9--9--|--9--9--9--9--9--9--9--9--9--9-9-||
D||-10-10-10-10-10-10-10-10-10-10-10--|-10-10-10-10-10-10-10-10-10-10-10-||
A||--0--0--0--0--0--0--0--0--0--0--0--|--0--0--0--0--0--0--0--0--0-0--0-||
E||-----------------------------------|----------------------------------||

Guitar 1
e||--0-0-0-0-0-0-0-0-0-0-0-0-0-0-0-0-|-0-0-0-0-0-0-0-0-0-0-0-0-0-0-0-0-0-||
B||--3-3-3-3-3-3-3-3-3-3-3-3-3-3-3-3-|-1-1-1-1-1-1-1-1-1-1-1-1-1-1-1-1-1-||
G||--2-2-2-2-2-2-2-2-2-2-2-2-2-2-2-2-|-0-0-0-0-0-0-0-0-0-0-0-0-0-0-0-0-0-||
D||--0-0-0-0-0-0-0-0-0-0-0-0-0-0-0-0-|-3-3-3-3-3-3-3-3-3-3-3-3-3-3-3-3-3-||
A||--0-0-0-0-0-0-0-0-0-0-0-0-0-0-0-0-|-3-3-3-3-3-3-3-3-3-3-3-3-3-3-3-3-3-||
E||--2-2-2-2-2-2-2-2-2-2-2-2-2-2-2-2-|-1-1-1-1-1-1-1-1-1-1-1-1-1-1-1-1-1-||

Guitar 2
   another on of your plays? Youre the pretender. What if I say I will
e||--7--7--7--7--7--7--7--7--7--7--7--|--7--7--7--7--7--7--7--7--7--7--7-||
B||-10-10-10-10-10-10-10-10-10-10-10--|-10-10-10-10-10-10-10-10-10-10-10-||
G||--9--9--9--9--9--9--9--9--9--9--9--|--9--9--9--9--9--9--9--9--9--9-9-||
D||-10-10-10-10-10-10-10-10-10-10-10--|-10-10-10-10-10-10-10-10-10-10-10-||
A||--0--0--0--0--0--0--0--0--0--0--0--|--0--0--0--0--0--0--0--0--0-0--0-||
E||-----------------------------------|----------------------------------||

Guitar 1
e||--0-0-0-0-0-0-0-0-0-0-0-0-0-0-0-0-0|0-0-0-0-0-0-0-0-0-0-0-0-0-0-0-0-0-||
B||--1-1-1-1-1-1-1-1-1-1-1-1-1-1-1-1-1|1-1-1-1-1-1-1-1-1-1-1-1-1-1-1-1-1-||
G||--2-2-2-2-2-2-2-2-2-2-2-2-2-2-2-2-2|2-2-2-2-2-2-2-2-2-2-2-2-2-2-2-2-2-||
D||--2-2-2-2-2-2-2-2-2-2-2-2-2-2-2-2-2|2-2-2-2-2-2-2-2-2-2-2-2-2-2-2-2-2-||
A||--0-0-0-0-0-0-0-0-0-0-0-0-0-0-0-0-0|0-0-0-0-0-0-0-0-0-0-0-0-0-0-0-0-0-||
E||-----------------------------------|----------------------------------||     

Guitar 2
   never surrender?
e||--7--7--7--7--7--------------------|----------------------------------||
B||-10-10-10-10-10--------------------|----------------------------------||
G||--9--9--9--9--9--------------------|----------------------------------||
D||-10-10-10-10-10--------------------|----------------------------------||
A||--0--0--0--0--0--------------------|----------------------------------||
E||-----------------------------------|----------------------------------||

Guitar 1
e||--0-0-0-0-0-0-0--------------------|----------------------------------||
B||--1-1-1-1-1-1-1--------------------|----------------------------------||
G||--2-2-2-2-2-2-2--------------------|----------------------------------||
D||--2-2-2-2-2-2-2--------------------|----------------------------------||
A||--0-0-0-0-0-0-0--------------------|----------------------------------||
E||-----------------------------------|----------------------------------||

Guitar 2
  What if I say Im not like the others? What if I say Im not just 
e||--7--7--7--7--7--7--7--7--7--7--7--|--7--7--7--7--7--7--7--7--7--7--7-||
B||-10-10-10-10-10-10-10-10-10-10-10--|-10-10-10-10-10-10-10-10-10-10-10-||
G||--9--9--9--9--9--9--9--9--9--9--9--|--9--9--9--9--9--9--9--9--9--9-9-||
D||-10-10-10-10-10-10-10-10-10-10-10--|-10-10-10-10-10-10-10-10-10-10-10-||
A||--0--0--0--0--0--0--0--0--0--0--0--|--0--0--0--0--0--0--0--0--0-0--0-||
E||-----------------------------------|----------------------------------||




[ Tab from: http://www.guitaretab.com/f/foo-fighters/158006.html ]
Guitar 1
e||--0-0-0-0-0-0-0-0-0-0-0-0-0-0-0-0-0|0-0-0-0-0-0-0-0-0-0-0-0-0-0-0-0-0-||
B||--1-1-1-1-1-1-1-1-1-1-1-1-1-1-1-1-1|1-1-1-1-1-1-1-1-1-1-1-1-1-1-1-1-1-||
G||--2-2-2-2-2-2-2-2-2-2-2-2-2-2-2-2-2|2-2-2-2-2-2-2-2-2-2-2-2-2-2-2-2-2-||
D||--2-2-2-2-2-2-2-2-2-2-2-2-2-2-2-2-2|2-2-2-2-2-2-2-2-2-2-2-2-2-2-2-2-2-||
A||--0-0-0-0-0-0-0-0-0-0-0-0-0-0-0-0-0|0-0-0-0-0-0-0-0-0-0-0-0-0-0-0-0-0-||
E||-----------------------------------|----------------------------------||     

Guitar 2
   another on of your plays? Youre the pretender. What if I say I will
e||--7--7--7--7--7--7--7--7--7--7--7--|--7--7--7--7--7--7--7--7--7--7--7-||
B||-10-10-10-10-10-10-10-10-10-10-10--|-10-10-10-10-10-10-10-10-10-10-10-||
G||--9--9--9--9--9--9--9--9--9--9--9--|--9--9--9--9--9--9--9--9--9--9-9-||
D||-10-10-10-10-10-10-10-10-10-10-10--|-10-10-10-10-10-10-10-10-10-10-10-||
A||--0--0--0--0--0--0--0--0--0--0--0--|--0--0--0--0--0--0--0--0--0-0--0-||
E||-----------------------------------|----------------------------------||

Guitar 1
e||--0-0-0-0-0-0-0-0-0-0-0-0-0-0-0-0-|-0-0-0-0-0-0-0-0-0-0-0-0-0-0-0-0-0-||
B||--3-3-3-3-3-3-3-3-3-3-3-3-3-3-3-3-|-1-1-1-1-1-1-1-1-1-1-1-1-1-1-1-1-1-||
G||--2-2-2-2-2-2-2-2-2-2-2-2-2-2-2-2-|-0-0-0-0-0-0-0-0-0-0-0-0-0-0-0-0-0-||
D||--0-0-0-0-0-0-0-0-0-0-0-0-0-0-0-0-|-3-3-3-3-3-3-3-3-3-3-3-3-3-3-3-3-3-||
A||--0-0-0-0-0-0-0-0-0-0-0-0-0-0-0-0-|-3-3-3-3-3-3-3-3-3-3-3-3-3-3-3-3-3-||
E||--2-2-2-2-2-2-2-2-2-2-2-2-2-2-2-2-|-1-1-1-1-1-1-1-1-1-1-1-1-1-1-1-1-1-||

Guitar 2
   never surrender?
e||--7--7--7--7--7--------------------|----------------------------------||
B||-10-10-10-10-10--------------------|----------------------------------||
G||--9--9--9--9--9--------------------|----------------------------------||
D||-10-10-10-10-10--------------------|----------------------------------||
A||--0--0--0--0--0--------------------|----------------------------------||
E||-----------------------------------|----------------------------------||

Guitar 1
e||--0-0-0-0-0-0-0--------------------|----------------------------------||
B||--1-1-1-1-1-1-1--------------------|----------------------------------||
G||--2-2-2-2-2-2-2--------------------|----------------------------------||
D||--2-2-2-2-2-2-2--------------------|----------------------------------||
A||--0-0-0-0-0-0-0--------------------|----------------------------------||
E||-----------------------------------|----------------------------------||

Guitar 2
  What if I say Im not like the others? What if I say Im not just 
e||--7--7--7--7--7--7--7--7--7--7--7--|--7--7--7--7--7--7--7--7--7--7--7-||
B||-10-10-10-10-10-10-10-10-10-10-10--|-10-10-10-10-10-10-10-10-10-10-10-||
G||--9--9--9--9--9--9--9--9--9--9--9--|--9--9--9--9--9--9--9--9--9--9-9-||
D||-10-10-10-10-10-10-10-10-10-10-10--|-10-10-10-10-10-10-10-10-10-10-10-||
A||--0--0--0--0--0--0--0--0--0--0--0--|--0--0--0--0--0--0--0--0--0-0--0-||
E||-----------------------------------|----------------------------------||

Guitar 1
e||--0-0-0-0-0-0-0-0-0-0-0-0-0-0-0-0-|-0-0-0-0-0-0-0-0-0-0-0-0-0-0-0-0-0-||
B||--3-3-3-3-3-3-3-3-3-3-3-3-3-3-3-3-|-1-1-1-1-1-1-1-1-1-1-1-1-1-1-1-1-1-||
G||--2-2-2-2-2-2-2-2-2-2-2-2-2-2-2-2-|-0-0-0-0-0-0-0-0-0-0-0-0-0-0-0-0-0-||
D||--0-0-0-0-0-0-0-0-0-0-0-0-0-0-0-0-|-3-3-3-3-3-3-3-3-3-3-3-3-3-3-3-3-3-||
A||--0-0-0-0-0-0-0-0-0-0-0-0-0-0-0-0-|-3-3-3-3-3-3-3-3-3-3-3-3-3-3-3-3-3-||
E||--2-2-2-2-2-2-2-2-2-2-2-2-2-2-2-2-|-1-1-1-1-1-1-1-1-1-1-1-1-1-1-1-1-1-||







Guitar 2
   another on of your plays? Youre the pretender. What if I say I will
e||--7--7--7--7--7--7--7--7--7--7--7--|--7--7--7--7--7--7--7--7--7--7--7-||
B||-10-10-10-10-10-10-10-10-10-10-10--|-10-10-10-10-10-10-10-10-10-10-10-||
G||--9--9--9--9--9--9--9--9--9--9--9--|--9--9--9--9--9--9--9--9--9--9-9-||
D||-10-10-10-10-10-10-10-10-10-10-10--|-10-10-10-10-10-10-10-10-10-10-10-||
A||--0--0--0--0--0--0--0--0--0--0--0--|--0--0--0--0--0--0--0--0--0-0--0-||
E||-----------------------------------|----------------------------------||

Guitar 1
e||--0-0-0-0-0-0-0-0-0-0-0-0-0-0-0-0-0|0-0-0-0-0-0-0-0-0-0-0-0-0-0-0-0-0-||
B||--1-1-1-1-1-1-1-1-1-1-1-1-1-1-1-1-1|1-1-1-1-1-1-1-1-1-1-1-1-1-1-1-1-1-||
G||--2-2-2-2-2-2-2-2-2-2-2-2-2-2-2-2-2|2-2-2-2-2-2-2-2-2-2-2-2-2-2-2-2-2-||
D||--2-2-2-2-2-2-2-2-2-2-2-2-2-2-2-2-2|2-2-2-2-2-2-2-2-2-2-2-2-2-2-2-2-2-||
A||--0-0-0-0-0-0-0-0-0-0-0-0-0-0-0-0-0|0-0-0-0-0-0-0-0-0-0-0-0-0-0-0-0-0-||
E||-----------------------------------|----------------------------------||     

Guitar 2
   never surrender?
e||--7--7--7--7--7--------------------|----------------------------------||
B||-10-10-10-10-10--------------------|----------------------------------||
G||--9--9--9--9--9--------------------|----------------------------------||
D||-10-10-10-10-10--------------------|----------------------------------||
A||--0--0--0--0--0--------------------|----------------------------------||
E||-----------------------------------|----------------------------------||

Guitar 1
e||--0-0-0-0-0-0-0--------------------|----------------------------------||
B||--3-3-3-3-3-3-3--------------------|----------------------------------||
G||--2-2-2-2-2-2-2--------------------|----------------------------------||
D||--0-0-0-0-0-0-0--------------------|----------------------------------||
A||--0-0-0-0-0-0-0--------------------|----------------------------------||
E||--2-2-2-2-2-2-2--------------------|----------------------------------||

Bridge Riff 
e||-----------------------------------|----------------------------------||
B||-----------------------------------|----------------------------------||
G||----------------2-----X------------|----------------2-----X-----------||
D||--2-X-4-X-5-X-4-2-X-X-4-X-5-X-7\2--|--2-X-4-X-5-X-4-2-X-X-4-X-5-X-7\2-||
A||--0-0-0-0-0-0-0-0-0-0-0-0-0-0-0----|--0-0-0-0-0-0-0-0-0-0-0-0-0-0-0---||
E||-----------------------------------|----------------------------------||
   Im the voice inside your head you refuse to hear. Im the face that 
e||-----------------------------------|----------------------------------||
B||-----------------------------------|----------------------------------||
G||----------------2-----X------------|----------------2-----X-----------||
D||--2-X-4-X-5-X-4-2-X-X-4-X-5-X-7\2--|--2-X-4-X-5-X-4-2-X-X-4-X-5-X-7\2-||
A||--0-0-0-0-0-0-0-0-0-0-0-0-0-0-0----|--0-0-0-0-0-0-0-0-0-0-0-0-0-0-0---||
E||-----------------------------------|----------------------------------||
   you have to face.  Mirrored in your stare
e||-----------------------------------|----------------------------------||
B||-----------------------------------|----------------------------------||
G||----------------2-----X------------|----------------2-----X-----------||
D||--2-X-4-X-5-X-4-2-X-X-4-X-5-X-7\2--|--2-X-4-X-5-X-4-2-X-X-4-X-5-X-7\2-||
A||--0-0-0-0-0-0-0-0-0-0-0-0-0-0-0----|--0-0-0-0-0-0-0-0-0-0-0-0-0-0-0---||
E||-----------------------------------|----------------------------------||

Bridge Riff 2
   Im whats left. Im whats right.  Im the enemy.  
e||-----------------------------------|----------------------------------||
B||-----------------------------------|----------------------------------||
G||-----------------------------------|----------------------------------||
D||--10----10-9--X--7--5--X---12----12|10-X--9--10-----------------------||
A||--0--0--0--0--0--0--0--0---0--0--0-|0--0--0--0--0---------------------||
E||-----------------------------------|----------------------------------||
   
Im the hand thatll take you down. Bring you to your knees.
e||-----------------------------------|----------------------------------||
B||-----------------------------------|----------------------------------||
G||-----------------------------------|----------------------------------||
D||--10----10-9--X--7--5--X---12----12|10-X--9--10-----------------------||
A||--0--0--0--0--0--0--0--0---0--0--0-|0--0--0--0--0---------------------||
E||-----------------------------------|----------------------------------||
   So   who   are  you?  Yeah, who are you?  Yeah, who are you? 
e||-----------------------------------|----------------------------------||
B||-----------------------------------|----------------------------------||
G||-----------12-X--14-X--------------|-----------12-X--14-X-------------||
D||--14----14-X--X--X--12-------------|--14----14-X--X--X--12------------||
A||--0--0--0--0--0--0--0--0-----------|--0--0--0--0--0--0--0--0----------||
E||-----------------------------------|----------------------------------||
   Yeah, who are you?
e||-----------------------------------|----------------------------------||
B||-----------------------------------|----------------------------------||
G||-----------12-X--14-X--------------|----------------------------------||
D||--14----14-X--X--X--12-------------|----------------------------------||
A||--0--0--0--0--0--0--0--0-----------|----------------------------------||
E||-----------------------------------|----------------------------------||
   Keep   you    in  the   dark.        You   know   they all
e||----------------7------------------|----------------------------------||
B||------------10-----10--------------|---10-----10-----10---------------||
G||---------9-------------9-----------|----9------9------9---------------||
D||-----10-------------------10-------|---10-----10-----10---------------||
A||--0------------------------------0-|--------------0------9------------||
E||-----------------------------------|7------8--------------------------||
                    pretend.
e||-----------------------------------|----------------------------------||
B||-------------10--------------------|-------10-------------------------||
G||----------9------------------------|----9-----------------------------||
D||------10---------------------------|10--------------------------------||
A||---------------(9)-9b--9--8--------|----------------------------------||
E||-----------------------------------|----------------------------------||

Chorus
Guitar 2
  What if I say Im not like the others? What if I say Im not just 
e||--7--7--7--7--7--7--7--7--7--7--7--|--7--7--7--7--7--7--7--7--7--7--7-||
B||-10-10-10-10-10-10-10-10-10-10-10--|-10-10-10-10-10-10-10-10-10-10-10-||
G||--9--9--9--9--9--9--9--9--9--9--9--|--9--9--9--9--9--9--9--9--9--9-9-||
D||-10-10-10-10-10-10-10-10-10-10-10--|-10-10-10-10-10-10-10-10-10-10-10-||
A||--0--0--0--0--0--0--0--0--0--0--0--|--0--0--0--0--0--0--0--0--0-0--0-||
E||-----------------------------------|----------------------------------||

Guitar 1
e||--0-0-0-0-0-0-0-0-0-0-0-0-0-0-0-0-0|0-0-0-0-0-0-0-0-0-0-0-0-0-0-0-0-0-||
B||--1-1-1-1-1-1-1-1-1-1-1-1-1-1-1-1-1|1-1-1-1-1-1-1-1-1-1-1-1-1-1-1-1-1-||
G||--2-2-2-2-2-2-2-2-2-2-2-2-2-2-2-2-2|2-2-2-2-2-2-2-2-2-2-2-2-2-2-2-2-2-||
D||--2-2-2-2-2-2-2-2-2-2-2-2-2-2-2-2-2|2-2-2-2-2-2-2-2-2-2-2-2-2-2-2-2-2-||
A||--0-0-0-0-0-0-0-0-0-0-0-0-0-0-0-0-0|0-0-0-0-0-0-0-0-0-0-0-0-0-0-0-0-0-||
E||-----------------------------------|----------------------------------||     

Guitar 2
   another on of your plays? Youre the pretender. What if I say I will
e||--7--7--7--7--7--7--7--7--7--7--7--|--7--7--7--7--7--7--7--7--7--7--7-||
B||-10-10-10-10-10-10-10-10-10-10-10--|-10-10-10-10-10-10-10-10-10-10-10-||
G||--9--9--9--9--9--9--9--9--9--9--9--|--9--9--9--9--9--9--9--9--9--9-9-||
D||-10-10-10-10-10-10-10-10-10-10-10--|-10-10-10-10-10-10-10-10-10-10-10-||
A||--0--0--0--0--0--0--0--0--0--0--0--|--0--0--0--0--0--0--0--0--0-0--0-||
E||-----------------------------------|----------------------------------||



Guitar 1
e||--0-0-0-0-0-0-0-0-0-0-0-0-0-0-0-0-|-0-0-0-0-0-0-0-0-0-0-0-0-0-0-0-0-0-||
B||--3-3-3-3-3-3-3-3-3-3-3-3-3-3-3-3-|-1-1-1-1-1-1-1-1-1-1-1-1-1-1-1-1-1-||
G||--2-2-2-2-2-2-2-2-2-2-2-2-2-2-2-2-|-0-0-0-0-0-0-0-0-0-0-0-0-0-0-0-0-0-||
D||--0-0-0-0-0-0-0-0-0-0-0-0-0-0-0-0-|-3-3-3-3-3-3-3-3-3-3-3-3-3-3-3-3-3-||
A||--0-0-0-0-0-0-0-0-0-0-0-0-0-0-0-0-|-3-3-3-3-3-3-3-3-3-3-3-3-3-3-3-3-3-||
E||--2-2-2-2-2-2-2-2-2-2-2-2-2-2-2-2-|-1-1-1-1-1-1-1-1-1-1-1-1-1-1-1-1-1-||

Guitar 2
   never surrender?
e||--7--7--7--7--7--------------------|----------------------------------||
B||-10-10-10-10-10--------------------|----------------------------------||
G||--9--9--9--9--9--------------------|----------------------------------||
D||-10-10-10-10-10--------------------|----------------------------------||
A||--0--0--0--0--0--------------------|----------------------------------||
E||-----------------------------------|----------------------------------||

Guitar 1
e||--0-0-0-0-0-0-0--------------------|----------------------------------||
B||--1-1-1-1-1-1-1--------------------|----------------------------------||
G||--2-2-2-2-2-2-2--------------------|----------------------------------||
D||--2-2-2-2-2-2-2--------------------|----------------------------------||
A||--0-0-0-0-0-0-0--------------------|----------------------------------||
E||-----------------------------------|----------------------------------||

Guitar 2
  What if I say Im not like the others? What if I say Im not just 
e||--7--7--7--7--7--7--7--7--7--7--7--|--7--7--7--7--7--7--7--7--7--7--7-||
B||-10-10-10-10-10-10-10-10-10-10-10--|-10-10-10-10-10-10-10-10-10-10-10-||
G||--9--9--9--9--9--9--9--9--9--9--9--|--9--9--9--9--9--9--9--9--9--9-9-||
D||-10-10-10-10-10-10-10-10-10-10-10--|-10-10-10-10-10-10-10-10-10-10-10-||
A||--0--0--0--0--0--0--0--0--0--0--0--|--0--0--0--0--0--0--0--0--0-0--0-||
E||-----------------------------------|----------------------------------||

Guitar 1
e||--0-0-0-0-0-0-0-0-0-0-0-0-0-0-0-0-|-0-0-0-0-0-0-0-0-0-0-0-0-0-0-0-0-0-||
B||--3-3-3-3-3-3-3-3-3-3-3-3-3-3-3-3-|-1-1-1-1-1-1-1-1-1-1-1-1-1-1-1-1-1-||
G||--2-2-2-2-2-2-2-2-2-2-2-2-2-2-2-2-|-0-0-0-0-0-0-0-0-0-0-0-0-0-0-0-0-0-||
D||--0-0-0-0-0-0-0-0-0-0-0-0-0-0-0-0-|-3-3-3-3-3-3-3-3-3-3-3-3-3-3-3-3-3-||
A||--0-0-0-0-0-0-0-0-0-0-0-0-0-0-0-0-|-3-3-3-3-3-3-3-3-3-3-3-3-3-3-3-3-3-||
E||--2-2-2-2-2-2-2-2-2-2-2-2-2-2-2-2-|-1-1-1-1-1-1-1-1-1-1-1-1-1-1-1-1-1-||

Guitar 2
   another on of your plays? Youre the pretender. What if I say I will
e||--7--7--7--7--7--7--7--7--7--7--7--|--7--7--7--7--7--7--7--7--7--7--7-||
B||-10-10-10-10-10-10-10-10-10-10-10--|-10-10-10-10-10-10-10-10-10-10-10-||
G||--9--9--9--9--9--9--9--9--9--9--9--|--9--9--9--9--9--9--9--9--9--9-9-||
D||-10-10-10-10-10-10-10-10-10-10-10--|-10-10-10-10-10-10-10-10-10-10-10-||
A||--0--0--0--0--0--0--0--0--0--0--0--|--0--0--0--0--0--0--0--0--0-0--0-||
E||-----------------------------------|----------------------------------||

Guitar 1
e||--0-0-0-0-0-0-0-0-0-0-0-0-0-0-0-0-0|0-0-0-0-0-0-0-0-0-0-0-0-0-0-0-0-0-||
B||--1-1-1-1-1-1-1-1-1-1-1-1-1-1-1-1-1|1-1-1-1-1-1-1-1-1-1-1-1-1-1-1-1-1-||
G||--2-2-2-2-2-2-2-2-2-2-2-2-2-2-2-2-2|2-2-2-2-2-2-2-2-2-2-2-2-2-2-2-2-2-||
D||--2-2-2-2-2-2-2-2-2-2-2-2-2-2-2-2-2|2-2-2-2-2-2-2-2-2-2-2-2-2-2-2-2-2-||
A||--0-0-0-0-0-0-0-0-0-0-0-0-0-0-0-0-0|0-0-0-0-0-0-0-0-0-0-0-0-0-0-0-0-0-||
E||-----------------------------------|----------------------------------||     







Guitar 2
   never surrender?
e||--7--7--7--7--7--------------------|----------------------------------||
B||-10-10-10-10-10--------------------|----------------------------------||
G||--9--9--9--9--9--------------------|----------------------------------||
D||-10-10-10-10-10--------------------|----------------------------------||
A||--0--0--0--0--0--------------------|----------------------------------||
E||-----------------------------------|----------------------------------||

Guitar 1
e||--0-0-0-0-0-0-0-0-0-0-0-0-0-0-0-0-|-0-0-0-0-0-0-0-0-0-0-0-0-0-0-0-0-0-||
B||--3-3-3-3-3-3-3-3-3-3-3-3-3-3-3-3-|-1-1-1-1-1-1-1-1-1-1-1-1-1-1-1-1-1-||
G||--2-2-2-2-2-2-2-2-2-2-2-2-2-2-2-2-|-0-0-0-0-0-0-0-0-0-0-0-0-0-0-0-0-0-||
D||--0-0-0-0-0-0-0-0-0-0-0-0-0-0-0-0-|-3-3-3-3-3-3-3-3-3-3-3-3-3-3-3-3-3-||
A||--0-0-0-0-0-0-0-0-0-0-0-0-0-0-0-0-|-3-3-3-3-3-3-3-3-3-3-3-3-3-3-3-3-3-||
E||--2-2-2-2-2-2-2-2-2-2-2-2-2-2-2-2-|-1-1-1-1-1-1-1-1-1-1-1-1-1-1-1-1-1-||

Guitar 2
  What if I say Im not like the others? What if I say Im not just 
e||--7--7--7--7--7--7--7--7--7--7--7--|--7--7--7--7--7--7--7--7--7--7--7-||
B||-10-10-10-10-10-10-10-10-10-10-10--|-10-10-10-10-10-10-10-10-10-10-10-||
G||--9--9--9--9--9--9--9--9--9--9--9--|--9--9--9--9--9--9--9--9--9--9-9-||
D||-10-10-10-10-10-10-10-10-10-10-10--|-10-10-10-10-10-10-10-10-10-10-10-||
A||--0--0--0--0--0--0--0--0--0--0--0--|--0--0--0--0--0--0--0--0--0-0--0-||
E||-----------------------------------|----------------------------------||

Guitar 1
e||--0-0-0-0-0-0-0-0-0-0-0-0-0-0-0-0-|-0-0-0-0-0-0-0-0-0-0-0-0-0-0-0-0-0-||
B||--3-3-3-3-3-3-3-3-3-3-3-3-3-3-3-3-|-1-1-1-1-1-1-1-1-1-1-1-1-1-1-1-1-1-||
G||--2-2-2-2-2-2-2-2-2-2-2-2-2-2-2-2-|-0-0-0-0-0-0-0-0-0-0-0-0-0-0-0-0-0-||
D||--0-0-0-0-0-0-0-0-0-0-0-0-0-0-0-0-|-3-3-3-3-3-3-3-3-3-3-3-3-3-3-3-3-3-||
A||--0-0-0-0-0-0-0-0-0-0-0-0-0-0-0-0-|-3-3-3-3-3-3-3-3-3-3-3-3-3-3-3-3-3-||
E||--2-2-2-2-2-2-2-2-2-2-2-2-2-2-2-2-|-1-1-1-1-1-1-1-1-1-1-1-1-1-1-1-1-1-||


Guitar 2
   another on of your plays? Youre the pretender. What if I say I will
e||--7--7--7--7--7--7--7--7--7--7--7--|--7--7--7--7--7--7--7--7--7--7--7-||
B||-10-10-10-10-10-10-10-10-10-10-10--|-10-10-10-10-10-10-10-10-10-10-10-||
G||--9--9--9--9--9--9--9--9--9--9--9--|--9--9--9--9--9--9--9--9--9--9-9-||
D||-10-10-10-10-10-10-10-10-10-10-10--|-10-10-10-10-10-10-10-10-10-10-10-||
A||--0--0--0--0--0--0--0--0--0--0--0--|--0--0--0--0--0--0--0--0--0-0--0-||
E||-----------------------------------|----------------------------------||

Guitar 1
e||--0-0-0-0-0-0-0-0-0-0-0-0-0-0-0-0-0|0-0-0-0-0-0-0-0-0-0-0-0-0-0-0-0-0-||
B||--1-1-1-1-1-1-1-1-1-1-1-1-1-1-1-1-1|1-1-1-1-1-1-1-1-1-1-1-1-1-1-1-1-1-||
G||--2-2-2-2-2-2-2-2-2-2-2-2-2-2-2-2-2|2-2-2-2-2-2-2-2-2-2-2-2-2-2-2-2-2-||
D||--2-2-2-2-2-2-2-2-2-2-2-2-2-2-2-2-2|2-2-2-2-2-2-2-2-2-2-2-2-2-2-2-2-2-||
A||--0-0-0-0-0-0-0-0-0-0-0-0-0-0-0-0-0|0-0-0-0-0-0-0-0-0-0-0-0-0-0-0-0-0-||
E||-----------------------------------|----------------------------------||     

Guitar 2
   never surrender?
e||--7--7--7--7--7--------------------|----------------------------------||
B||-10-10-10-10-10--------------------|----------------------------------||
G||--9--9--9--9--9--------------------|----------------------------------||
D||-10-10-10-10-10--------------------|----------------------------------||
A||--0--0--0--0--0--------------------|----------------------------------||
E||-----------------------------------|----------------------------------||





Guitar 1
e||--0-0-0-0-0-0-0--------------------|----------------------------------||
B||--3-3-3-3-3-3-3--------------------|----------------------------------||
G||--2-2-2-2-2-2-2--------------------|----------------------------------||
D||--0-0-0-0-0-0-0--------------------|----------------------------------||
A||--0-0-0-0-0-0-0--------------------|----------------------------------||
E||--2-2-2-2-2-2-2--------------------|----------------------------------||

Guitar 2	
  What if I say Im not like the others? What if I say Im not just 
e||--7--7--7--7--7--7--7--7--7--7--7--|--7--7--7--7--7--7--7--7--7--7--7-||
B||-10-10-10-10-10-10-10-10-10-10-10--|-10-10-10-10-10-10-10-10-10-10-10-||
G||--9--9--9--9--9--9--9--9--9--9--9--|--9--9--9--9--9--9--9--9--9--9-9-||
D||-10-10-10-10-10-10-10-10-10-10-10--|-10-10-10-10-10-10-10-10-10-10-10-||
A||--0--0--0--0--0--0--0--0--0--0--0--|--0--0--0--0--0--0--0--0--0-0--0-||
E||-----------------------------------|----------------------------------||
Guitar 1
    Keep   you    in  the   dark.        You   know   they all
e||--0-0-0-0-0-0-0-0-0-0-0-0-0-0-0-0-|-0-0-0-0-0-0-0-0-0-0-0-0-0-0-0-0-0-||
B||--3-3-3-3-3-3-3-3-3-3-3-3-3-3-3-3-|-1-1-1-1-1-1-1-1-1-1-1-1-1-1-1-1-1-||
G||--2-2-2-2-2-2-2-2-2-2-2-2-2-2-2-2-|-0-0-0-0-0-0-0-0-0-0-0-0-0-0-0-0-0-||
D||--0-0-0-0-0-0-0-0-0-0-0-0-0-0-0-0-|-3-3-3-3-3-3-3-3-3-3-3-3-3-3-3-3-3-||
A||--0-0-0-0-0-0-0-0-0-0-0-0-0-0-0-0-|-3-3-3-3-3-3-3-3-3-3-3-3-3-3-3-3-3-||
E||--2-2-2-2-2-2-2-2-2-2-2-2-2-2-2-2-|-1-1-1-1-1-1-1-1-1-1-1-1-1-1-1-1-1-||
   
another on of your plays? Youre the pretender. What if I say I will
e||--7--7--7--7--7--7--7--7--7--7--7--|--7--7--7--7--7--7--7--7--7--7--7-||
B||-10-10-10-10-10-10-10-10-10-10-10--|-10-10-10-10-10-10-10-10-10-10-10-||
G||--9--9--9--9--9--9--9--9--9--9--9--|--9--9--9--9--9--9--9--9--9--9-9-||
D||-10-10-10-10-10-10-10-10-10-10-10--|-10-10-10-10-10-10-10-10-10-10-10-||
A||--0--0--0--0--0--0--0--0--0--0--0--|--0--0--0--0--0--0--0--0--0-0--0-||
E||-----------------------------------|----------------------------------||

Guitar 1
                   pretend.
e||--0-0-0-0-0-0-0-0-0-0-0-0-0-0-0-0-0|0-0-0-0-0-0-0-0-0-0-0-0-0-0-0-0-0-||
B||--1-1-1-1-1-1-1-1-1-1-1-1-1-1-1-1-1|1-1-1-1-1-1-1-1-1-1-1-1-1-1-1-1-1-||
G||--2-2-2-2-2-2-2-2-2-2-2-2-2-2-2-2-2|2-2-2-2-2-2-2-2-2-2-2-2-2-2-2-2-2-||
D||--2-2-2-2-2-2-2-2-2-2-2-2-2-2-2-2-2|2-2-2-2-2-2-2-2-2-2-2-2-2-2-2-2-2-||
A||--0-0-0-0-0-0-0-0-0-0-0-0-0-0-0-0-0|0-0-0-0-0-0-0-0-0-0-0-0-0-0-0-0-0-||
E||-----------------------------------|----------------------------------||     

Guitar 2
   never surrender?
e||--7--7--7--7--7--------------------|----------------------------------||
B||-10-10-10-10-10--------------------|----------------------------------||
G||--9--9--9--9--9--------------------|----------------------------------||
D||-10-10-10-10-10--------------------|----------------------------------||
A||--0--0--0--0--0--------------------|----------------------------------||
E||-----------------------------------|----------------------------------||

Guitar 2	
  What if I say Im not like the others? What if I say Im not just 
e||--7--7--7--7--7--7--7--7--7--7--7--|--7--7--7--7--7--7--7--7--7--7--7-||
B||-10-10-10-10-10-10-10-10-10-10-10--|-10-10-10-10-10-10-10-10-10-10-10-||
G||--9--9--9--9--9--9--9--9--9--9--9--|--9--9--9--9--9--9--9--9--9--9-9-||
D||-10-10-10-10-10-10-10-10-10-10-10--|-10-10-10-10-10-10-10-10-10-10-10-||
A||--0--0--0--0--0--0--0--0--0--0--0--|--0--0--0--0--0--0--0--0--0-0--0-||
E||-----------------------------------|----------------------------------||

Guitar 1
    Keep   you    in  the   dark.        You   know   they all
e||--0-0-0-0-0-0-0-0-0-0-0-0-0-0-0-0-|-0-0-0-0-0-0-0-0-0-0-0-0-0-0-0-0-0-||
B||--3-3-3-3-3-3-3-3-3-3-3-3-3-3-3-3-|-1-1-1-1-1-1-1-1-1-1-1-1-1-1-1-1-1-||
G||--2-2-2-2-2-2-2-2-2-2-2-2-2-2-2-2-|-0-0-0-0-0-0-0-0-0-0-0-0-0-0-0-0-0-||
D||--0-0-0-0-0-0-0-0-0-0-0-0-0-0-0-0-|-3-3-3-3-3-3-3-3-3-3-3-3-3-3-3-3-3-||
A||--0-0-0-0-0-0-0-0-0-0-0-0-0-0-0-0-|-3-3-3-3-3-3-3-3-3-3-3-3-3-3-3-3-3-||
E||--2-2-2-2-2-2-2-2-2-2-2-2-2-2-2-2-|-1-1-1-1-1-1-1-1-1-1-1-1-1-1-1-1-1-||

Guitar 2
   another on of your plays? Youre the pretender. What if I say I will
e||--7--7--7--7--7--7--7--7--7--7--7--|--7--7--7--7--7--7--7--7--7--7--7-||
B||-10-10-10-10-10-10-10-10-10-10-10--|-10-10-10-10-10-10-10-10-10-10-10-||
G||--9--9--9--9--9--9--9--9--9--9--9--|--9--9--9--9--9--9--9--9--9--9-9-||
D||-10-10-10-10-10-10-10-10-10-10-10--|-10-10-10-10-10-10-10-10-10-10-10-||
A||--0--0--0--0--0--0--0--0--0--0--0--|--0--0--0--0--0--0--0--0--0-0--0-||
E||-----------------------------------|----------------------------------||

Guitar 1
                   pretend.
e||--0-0-0-0-0-0-0-0-0-0-0-0-0-0-0-0-|-0-0-0-0-0-0-0-0-0-0-0-0-0-0-0-0-0-||
B||--3-3-3-3-3-3-3-3-3-3-3-3-3-3-3-3-|-1-1-1-1-1-1-1-1-1-1-1-1-1-1-1-1-1-||
G||--2-2-2-2-2-2-2-2-2-2-2-2-2-2-2-2-|-0-0-0-0-0-0-0-0-0-0-0-0-0-0-0-0-0-||
D||--0-0-0-0-0-0-0-0-0-0-0-0-0-0-0-0-|-3-3-3-3-3-3-3-3-3-3-3-3-3-3-3-3-3-||
A||--0-0-0-0-0-0-0-0-0-0-0-0-0-0-0-0-|-3-3-3-3-3-3-3-3-3-3-3-3-3-3-3-3-3-||
E||--2-2-2-2-2-2-2-2-2-2-2-2-2-2-2-2-|-1-1-1-1-1-1-1-1-1-1-1-1-1-1-1-1-1-||

Guitar 2
   never surrender?
e||--7--7--7--7--7--------------------|----------------------------------||
B||-10-10-10-10-10--------------------|----------------------------------||
G||--9--9--9--9--9--------------------|----------------------------------||
D||-10-10-10-10-10--------------------|----------------------------------||
A||--0--0--0--0--0--------------------|----------------------------------||
E||-----------------------------------|----------------------------------||

Guitar 1
e||--0-0-0-0-0-0-0--------------------|----------------------------------||
B||--3-3-3-3-3-3-3--------------------|----------------------------------||
G||--2-2-2-2-2-2-2--------------------|----------------------------------||
D||--0-0-0-0-0-0-0--------------------|----------------------------------||
A||--0-0-0-0-0-0-0--------------------|----------------------------------||
E||--2-2-2-2-2-2-2--------------------|----------------------------------||
   So   who   are  you?  Yeah, who are you?  Yeah, who are you? 
e||-----------------------------------|----------------------------------||
B||-----------------------------------|----------------------------------||
G||-----------12-X--14-X--------------|-----------12-X--14-X-------------||
D||--14----14-X--X--X--12-------------|--14----14-X--X--X--12------------||
A||--0--0--0--0--0--0--0--0-----------|--0--0--0--0--0--0--0--0----------||
E||-----------------------------------|----------------------------------||
Tabbed By Miguel Villasanta
Related for Pretender tab