Song name
# A B C D E F G H I J K L M N O P Q R S T U V W X Y Z

Foo Fighters - Summers End tab

 Summer's End                 


                                 Foo Fighetrs
Chris Shifflet - Lead Guitar



             E  E  E  E  E  E  E  E   
E||-------|--------------------------|
B||-------|--------------------------|
G||-------|--------------------------|
D||-------|--------------3-----3-----|
A||-------|--------------3--5--3--0--|
E||-------|-----3--3--5--------------|


  Q    H.              W                 
-------0------------|--L----------------|
-------3------------|--L----------------|
-------2------------|--L----------------|
--0----0------------|--L----------------|
-------0------------|--L----------------|
--------------------|-------------------|


  E  E  E  E  E  E  E  E   
--L--L--L--L--L--L--L--L--|
--L--L--L--L--L--L--L--L--|
--L--L--L--L--L--L--L--L--|
--L-----------3-----3-----|
--L-----------3--5--3--0--|
-----3--3--5--------------|


  Q    H.              W                 
-------2------------|--L----------------|
-------3------------|--L----------------|
-------2------------|--L----------------|
--0----0------------|--L----------------|
-------0------------|--L----------------|
--------------------|-------------------|


  W                   W                 
--L----------------|--L----------------|
--L----------------|--L----------------|
--L----------------|--L----------------|
--L----------------|--L----------------|
--L----------------|--L----------------|
-------------------|-------------------|


  E   E  E  E  E  E  E  E   
---------------------------|
--6p--5-----3--L--------1--|
--5---------------2--------|
--0------0-----------0-----|
---------------------------|
---------------------------|


  E  E  E  E  E  E  E  E   
-----------0--L-----------|
--L--3-----------3--------|
--------------------------|
--------0-----------0--0--|
--------------------------|
--------------------------|


  E   E  E  E  E  E  E  E   
---------------------------|
--6p--5-----3--L--------3--|
--5---------------2--------|
--0------0-----------0-----|
---------------------------|
---------------------------|


  E  E  E  E  E  E  E  E   
-----------0--L-----------|
--L--------------3--------|
-----2--------------------|
--------0-----------0--0--|
--------------------------|
--------------------------|


  E   E  E  E  E  E  E  E   
---------------------------|
--6p--5-----3--L--1--1--0--|
--5------------------------|
--0------0-----------------|
---------------------------|
---------------------------|


  Q    Q    E  E  E  E   
--0----0----0--0--0--0--|
--1----1----1--1--1--1--|
--0----0----0--0--0--0--|
--2----2----2--2--2--2--|
--3----3----3--3--3--3--|
------------------------|


  E  E  E  E  E  E  E  E   
--------3--L--L--3--3--3--|
--------3--L--L--3--3--3--|
--2--0--0--L--L--0--0--0--|
-----0--0--L--L--0--0--0--|
--------x--L--L--x--x--x--|
--------3--L--L--3--3--3--|


  E  E  E  E  E  E  E  E   
--L-----------------------|
--L-----------------------|
--L-----------------------|
--L-----------3-----3-----|
--------------3--5--3--0--|
--L--3--3--5--------------|


  Q    H.              W                 
-------2------------|--L----------------|
-------3------------|--L----------------|
-------2------------|--L----------------|
--0----0------------|--L----------------|
-------0------------|--L----------------|
--------------------|-------------------|


  W                   W                 
--L----------------|--L----------------|
--L----------------|--L----------------|
--L----------------|--L----------------|
--L----------------|--L----------------|
--L----------------|--L----------------|
-------------------|-------------------|


  E   E  E  E  E  E  E  E   
---------------------------|
--6p--5-----3--L--------1--|
--5---------------2--------|
--0------0-----------0-----|
---------------------------|
---------------------------|


  E  E  E  E  E  E  E  E   
-----------0--L-----------|
--L--3-----------3--------|
--------------------------|
--------0-----------0--0--|
--------------------------|
--------------------------|


  E   E  E  E  E  E  E  E   
---------------------------|
--6p--5-----3--L--------3--|
--5---------------2--------|
--0------0-----------0-----|
---------------------------|
---------------------------|


  E  E  E  E  E  E  E  E   
-----------0--L-----------|
--L--------------3--------|
-----2--------------------|
--------0-----------0--0--|
--------------------------|
--------------------------|


  E   E  E  E  E  E  E  E   
---------------------------|
--6p--5-----3--L--1--1--0--|
--5------------------------|
--0------0-----------------|
---------------------------|
---------------------------|


  Q    Q    E  E  E  E   
--0----0----0--0--0--0--|
--1----1----1--1--1--1--|
--0----0----0--0--0--0--|
--2----2----2--2--2--2--|
--3----3----3--3--3--3--|
------------------------|


  E  E  E  E  E  E  E  E   
--------3--L--L--3--3--3--|
--------3--L--L--3--3--3--|
--2--0--0--L--L--0--0--0--|
-----0--0--L--L--0--0--0--|
--------x--L--L--x--x--x--|
--------3--L--L--3--3--3--|


  E  E  E  E  E  E  E  E   
--L-----------------------|
--L-----------------------|
--L-----------------------|
--L-----------3-----3-----|
--------------3--5--3--0--|
--L--3--3--5--------------|


  Q    H.            
-------2------------|
-------3------------|
-------2------------|
--0----0------------|
-------0------------|
--------------------|


  E  E  E  E  E  E  E  E   
--L-----------------------|
--L-----------------------|
--L-----------------------|
--L-----------3-----3-----|
--------------3--5--3--0--|
--L--3--3--5--------------|


  Q    H.            
-------2------------|
-------3------------|
-------2------------|
--0----0------------|
-------0------------|
--------------------|


  E  E  E  E  E  E  E  E   
--L-----------------------|
--L-----------------------|
--L-----------------------|
--L-----------3-----3-----|
--------------3--5--3--0--|
--L--3--3--5--------------|


  E  E  E  E  E  E  E  E   
--2--L--2--L--0--2--L--3--|
--3--L--3--L--3--3--L--3--|
--2--L--2--L--2--2--L--2--|
--0--L--0--L--0--0--L--0--|
--------------------------|
--------------------------|


  E  E  E  E  E  E  E  E   
--L--3--3--L--3--3--3--3--|
--L--1--1--L--1--1--1--1--|
--L--2--2--L--2--2--2--2--|
--L--2--2--L--2--2--2--2--|
-----0--0--L--0--0--0--0--|
--------------------------|


  Q    E  E  E  E  E  E   
--3----3--3--3--3--3--3--|
--1----1--1--1--1--1--1--|
--0----0--0--0--0--0--0--|
--2----2--2--2--2--2--2--|
--3----3--3--3--3--3--3--|
-------------------------|


  E  E  E  E  E  E  E  E   
--3--3--3--L--3--3--3--3--|
--1--3--3--L--3--3--3--3--|
--0--0--0--L--0--0--0--0--|
--2--0--0--L--0--0--0--0--|
--3--2--2--L--2--2--2--2--|
-----3--3--L--3--3--3--3--|


  E  E  E  E  E  E  E  E   
--2--L--2--L--0--2--L--3--|
--3--L--3--L--3--3--L--3--|
--2--L--2--L--2--2--L--2--|
--0--L--0--L--0--0--L--0--|
--------------------------|
--------------------------|


  E  E  E  E  E  E  E  E   
--L--3--3--L--3--3--3--3--|
--L--1--1--L--1--1--1--1--|
--L--2--2--L--2--2--2--2--|
--L--2--2--L--2--2--2--2--|
-----0--0--L--0--0--0--0--|
--------------------------|


  Q    E  E  E  E  E  E   
--3----3--3--3--3--3--3--|
--1----1--1--1--1--1--1--|
--0----0--0--0--0--0--0--|
--2----2--2--2--2--2--2--|
--3----3--3--3--3--3--3--|
-------------------------|


  E   E   E   E   E   E   E  E   
--L-----------------------------|
--L-----------------------------|
--L--14--14--12--12--10--10-----|
--L---x---x---x---x---x---x-----|
--L--12--12--10--10---8---8-----|
--------------------------------|


  E  E  E  E  E  E  E  E   
--2--L--2--L--0--2--L--3--|
--3--L--3--L--3--3--L--3--|
--2--L--2--L--2--2--L--2--|
--0--L--0--L--0--0--L--0--|
--------------------------|
--------------------------|


  E  E  E  E  E  E  E  E   
--L--3--3--L--3--3--3--3--|
--L--1--1--L--1--1--1--1--|
--L--2--2--L--2--2--2--2--|
--L--2--2--L--2--2--2--2--|
-----0--0--L--0--0--0--0--|
--------------------------|


  Q    E  E  E  E  E  E   
--3----3--3--3--3--3--3--|
--1----1--1--1--1--1--1--|
--0----0--0--0--0--0--0--|
--2----2--2--2--2--2--2--|
--3----3--3--3--3--3--3--|
-------------------------|


  E  E  E  E  E  E  E  E   
--3--3--3--L--3--3--3--3--|
--1--3--3--L--3--3--3--3--|
--0--0--0--L--0--0--0--0--|
--2--0--0--L--0--0--0--0--|
--3--2--2--L--2--2--2--2--|
-----3--3--L--3--3--3--3--|


  E  E  E  E  E  E  E  E   
--2--L--2--L--0--2--L--3--|
--3--L--3--L--3--3--L--3--|
--2--L--2--L--2--2--L--2--|
--0--L--0--L--0--0--L--0--|
--------------------------|
--------------------------|


  E  E  E  E  E  E  E  E   
--L--3--3--L--3--3--3--3--|
--L--1--1--L--1--1--1--1--|
--L--2--2--L--2--2--2--2--|
--L--2--2--L--2--2--2--2--|
-----0--0--L--0--0--0--0--|
--------------------------|


  Q    E  E  E  E  E  E   
--3----3--3--3--3--3--3--|
--1----1--1--1--1--1--1--|
--0----0--0--0--0--0--0--|
--2----2--2--2--2--2--2--|
--3----3--3--3--3--3--3--|
-------------------------|


  E  E  E  E  E  E  E  E   
--------------------------|
--------------------------|
--------------------------|
--------------3-----3-----|
--------------3--5--3--0--|
-----3--3--5--------------|


  Q    H.              W                 
-------2------------|--L----------------|
-------3------------|--L----------------|
-------2------------|--L----------------|
--0----0------------|--L----------------|
-------0------------|--L----------------|
--------------------|-------------------|


  W                   W                 
--L----------------|--L----------------|
--L----------------|--L----------------|
--L----------------|--L----------------|
--L----------------|--L----------------|
--L----------------|--L----------------|
-------------------|-------------------|


  E   E  E  E  E  E  E  E   
---------------------------|
--6p--5-----3--L--------1--|
--5---------------2--------|
--0------0-----------0-----|
---------------------------|
---------------------------|


  E  E  E  E  E  E  E  E   
-----------0--L-----------|
--L--3-----------3--------|
--------------------------|
--------0-----------0--0--|
--------------------------|
--------------------------|


  E   E  E  E  E  E  E  E   
---------------------------|
--6p--5-----3--L--------3--|
--5---------------2--------|
--0------0-----------0-----|
---------------------------|
---------------------------|


  E  E  E  E  E  E  E  E   
-----------0--L-----------|
--L--------------3--------|
-----2--------------------|
--------0-----------0--0--|
--------------------------|
--------------------------|


  E   E  E  E  E  E  E  E   
---------------------------|
--6p--5-----3--L--1--1--0--|
--5------------------------|
--0------0-----------------|
---------------------------|
---------------------------|


  Q    Q    E  E  E  E   
--0----0----0--0--0--0--|
--1----1----1--1--1--1--|
--0----0----0--0--0--0--|
--2----2----2--2--2--2--|
--3----3----3--3--3--3--|
------------------------|


  E  E  E  E  E  E  E  E   
--------3--L--L--3--3--3--|
--------3--L--L--3--3--3--|
--2--0--0--L--L--0--0--0--|
-----0--0--L--L--0--0--0--|
--------x--L--L--x--x--x--|
--------3--L--L--3--3--3--|


  E  E  E  E  E  E  E  E   
--L-----------------------|
--L-----------------------|
--L-----------------------|
--L-----------3-----3-----|
--------------3--5--3--0--|
--L--3--3--5--------------|


  Q    H.              W                 
-------2------------|--L----------------|
-------3------------|--L----------------|
-------2------------|--L----------------|
--0----0------------|--L----------------|
-------0------------|--L----------------|
--------------------|-------------------|


  W                   W                 
--L----------------|--L----------------|
--L----------------|--L----------------|
--L----------------|--L----------------|
--L----------------|--L----------------|
--L----------------|--L----------------|
-------------------|-------------------|


  E   E  E  E  E  E  E  E   
---------------------------|
--6p--5-----3--L--------1--|
--5---------------2--------|
--0------0-----------0-----|
---------------------------|
---------------------------|


  E  E  E  E  E  E  E  E   
-----------0--L-----------|
--L--3-----------3--------|
--------------------------|
--------0-----------0--0--|
--------------------------|
--------------------------|


  E   E  E  E  E  E  E  E   
---------------------------|
--6p--5-----3--L--------3--|
--5---------------2--------|
--0------0-----------0-----|
---------------------------|
---------------------------|


  E  E  E  E  E  E  E  E   
-----------0--L-----------|
--L--------------3--------|
-----2--------------------|
--------0-----------0--0--|
--------------------------|
--------------------------|


  E   E  E  E  E  E  E  E   
---------------------------|
--6p--5-----3--L--1--1--0--|
--5------------------------|
--0------0-----------------|
---------------------------|
---------------------------|


  Q    Q    E  E  E  E   
--0----0----0--0--0--0--|
--1----1----1--1--1--1--|
--0----0----0--0--0--0--|
--2----2----2--2--2--2--|
--3----3----3--3--3--3--|
------------------------|


  E  E  E  E  E  E  E  E   
--------3--L--L--3--3--3--|
--------3--L--L--3--3--3--|
--2--0--0--L--L--0--0--0--|
-----0--0--L--L--0--0--0--|
--------x--L--L--x--x--x--|
--------3--L--L--3--3--3--|


  E  E  E  E  E  E  E  E   
--L-----------------------|
--L-----------------------|
--L-----------------------|
--L-----------3-----3-----|
--------------3--5--3--0--|
--L--3--3--5--------------|


  Q    H.            
-------2------------|
-------3------------|
-------2------------|
--0----0------------|
-------0------------|
--------------------|


  E  E  E  E  E  E  E  E   
--L-----------------------|
--L-----------------------|
--L-----------------------|
--L-----------3-----3-----|
--------------3--5--3--0--|
--L--3--3--5--------------|


  Q    H.            
-------2------------|
-------3------------|
-------2------------|
--0----0------------|
-------0------------|
--------------------|


  E  E  E  E  E  E  E  E   
--L-----------------------|
--L-----------------------|
--L-----------------------|
--L-----------3-----3-----|
--------------3--5--3--0--|
--L--3--3--5--------------|


  E  E  E  E  E  E  E  E   
--2--L--2--L--0--2--L--3--|
--3--L--3--L--3--3--L--3--|
--2--L--2--L--2--2--L--2--|
--0--L--0--L--0--0--L--0--|
--------------------------|
--------------------------|


  E  E  E  E  E  E  E  E   
--L--3--3--L--3--3--3--3--|
--L--1--1--L--1--1--1--1--|
--L--2--2--L--2--2--2--2--|
--L--2--2--L--2--2--2--2--|
-----0--0--L--0--0--0--0--|
--------------------------|


  Q    E  E  E  E  E  E   
--3----3--3--3--3--3--3--|
--1----1--1--1--1--1--1--|
--0----0--0--0--0--0--0--|
--2----2--2--2--2--2--2--|
--3----3--3--3--3--3--3--|
-------------------------|


  E  E  E  E  E  E  E  E   
--3--3--3--L--3--3--3--3--|
--1--3--3--L--3--3--3--3--|
--0--0--0--L--0--0--0--0--|
--2--0--0--L--0--0--0--0--|
--3--2--2--L--2--2--2--2--|
-----3--3--L--3--3--3--3--|


  E  E  E  E  E  E  E  E   
--2--L--2--L--0--2--L--3--|
--3--L--3--L--3--3--L--3--|
--2--L--2--L--2--2--L--2--|
--0--L--0--L--0--0--L--0--|
--------------------------|
--------------------------|


  E  E  E  E  E  E  E  E   
--L--3--3--L--3--3--3--3--|
--L--1--1--L--1--1--1--1--|
--L--2--2--L--2--2--2--2--|
--L--2--2--L--2--2--2--2--|
-----0--0--L--0--0--0--0--|
--------------------------|


  Q    E  E  E  E  E  E   
--3----3--3--3--3--3--3--|
--1----1--1--1--1--1--1--|
--0----0--0--0--0--0--0--|
--2----2--2--2--2--2--2--|
--3----3--3--3--3--3--3--|
-------------------------|


  E   E   E   E   E   E   E  E   
--L-----------------------------|
--L-----------------------------|
--L--14--14--12--12--10--10-----|
--L---x---x---x---x---x---x-----|
--L--12--12--10--10---8---8-----|
--------------------------------|


  E  E  E  E  E  E  E  E   
--2--L--2--L--0--2--L--3--|
--3--L--3--L--3--3--L--3--|
--2--L--2--L--2--2--L--2--|
--0--L--0--L--0--0--L--0--|
--------------------------|
--------------------------|


  E  E  E  E  E  E  E  E   
--L--3--3--L--3--3--3--3--|
--L--1--1--L--1--1--1--1--|
--L--2--2--L--2--2--2--2--|
--L--2--2--L--2--2--2--2--|
-----0--0--L--0--0--0--0--|
--------------------------|


  Q    E  E  E  E  E  E   
--3----3--3--3--3--3--3--|
--1----1--1--1--1--1--1--|
--0----0--0--0--0--0--0--|
--2----2--2--2--2--2--2--|
--3----3--3--3--3--3--3--|
-------------------------|


  E  E  E  E  E  E  E  E   
--3--3--3--L--3--3--3--3--|
--1--3--3--L--3--3--3--3--|
--0--0--0--L--0--0--0--0--|
--2--0--0--L--0--0--0--0--|
--3--2--2--L--2--2--2--2--|
-----3--3--L--3--3--3--3--|


  E  E  E  E  E  E  E  E   
--2--L--2--L--0--2--L--3--|
--3--L--3--L--3--3--L--3--|
--2--L--2--L--2--2--L--2--|
--0--L--0--L--0--0--L--0--|
--------------------------|
--------------------------|


  E  E  E  E  E  E  E  E   
--L--3--3--L--3--3--3--3--|
--L--1--1--L--1--1--1--1--|
--L--2--2--L--2--2--2--2--|
--L--2--2--L--2--2--2--2--|
-----0--0--L--0--0--0--0--|
--------------------------|


  Q    E  E  E  E  E  E   
--3----3--3--3--3--3--3--|
--1----1--1--1--1--1--1--|
--0----0--0--0--0--0--0--|
--2----2--2--2--2--2--2--|
--3----3--3--3--3--3--3--|
-------------------------|


  E  E  E  E  E  E  E  E   
--------------------------|
--------------------------|
--------------------------|
--------------3-----3-----|
--------------3--5--3--0--|
-----3--3--5--------------|


   E    E   E   E  E   E   E   E   
-------10-------------10----------|
--10-------10--13--L------10------|
--12b-------------------------12--|
----------------------------------|
----------------------------------|
----------------------------------|


  E   E   E   E  E   E   E   E   
--------------------------------|
-----10-------------------------|
--L--10-------------10------10--|
---------12--12--L------12------|
--------------------------------|
--------------------------------|


   E    E   E   E  E   E   E   E   
-------10-------------10----------|
-----------10--13--L------10------|
--12b-------------------------12--|
----------------------------------|
----------------------------------|
----------------------------------|


   E   E   E  E   E   E   E   E   
---------------------------------|
-------x--10-----10--10----------|
---L---x--12-----12--10------10--|
-------------------------12--10--|
---------------------------------|
---------------------------------|


   E    E   E   E  E   E   E  E   
-------10-------------10---------|
-----------10--13--L------10--0--|
--12b-------------------------0--|
---------------------------------|
---------------------------------|
---------------------------------|


   E   E  E     E   E   E   E   E    
--13b--L--Lpbr--L--10------10-------|
-----------------------13------13b--|
------------------------------------|
------------------------------------|
------------------------------------|
------------------------------------|


  H         Q     E  E   
------------------------|
--L~--------L~----L--0--|
---------------------0--|
------------------------|
------------------------|
------------------------|


   w/ocatve effect                        
   E               E  E   E  E  E  E  E   
--13s-------------12-----10-----8-----5--|
---x---------------x------x-----x-----x--|
--10s--------------9------7-----5-----2--|
---x---------------x------x-----x-----7--|
---8---------------7------5-----3-----x--|
--------------------------------------5--|


  E  E  E  E  E  E  E  E   
--L--5--5--L--5--5--5--x--|
-----x--x-----x--x--x--x--|
--L--2--2-----2--2--2--x--|
--L--7--7-----7--7--7-----|
--L--x--x-----x--x--x-----|
--L--5--5-----5--5--5-----|


   E    E  E   E  E  E  E   E   
--13s--12-----10-----8-----14--|
---x----x------x-----x------x--|
--10s---9------7-----5-----11--|
---x----x------x-----x------x--|
---8----7------5-----3------9--|
-------------------------------|


  E   E   E   E  E   E   E   E   
--L--14--15--17--L--15--14---x--|
------x---x---x------x---x---x--|
--L--11--12--14-----12--11---x--|
------x---x---x------x---x------|
--L---9--10--12-----10---9------|
--------------------------------|


   E    E  E   E  E  Q    E    
--13s--12-----10-----8----5\--|
---x----x------x-----x----x---|
--10s---9------7-----5----2---|
---x----x------x-----x----7\--|
---8----7------5-----3----x---|
--------------------------5\--|


   Octave off                                
   |-------3------|    |----3---|   |----3---
   E          E   E    E   E    E   E   E    
---------------------------------------------
-------------10-------13-------10--13-------1
--12b------------12b------12b----------12b---
---------------------------------------------
---------------------------------------------
---------------------------------------------


   |----3---|   |----3---|   |----3---|   |--
   E   E    E   E   E    E   E   E    E   E  
---------------------------------------------
--13-------10--13-------10--13-------10--13--
------12b----------12b----------12b----------
---------------------------------------------
---------------------------------------------
---------------------------------------------


   E   E     E   E   E   E   E   E   
------------------------------------|
--13--------------------------------|
------12br---L--10--12------10--12--|
------------------------12----------|
------------------------------------|
------------------------------------|


  E  E  E  E  E  E  E  E   
--2--L--2--L--0--2--L--3--|
--3--L--3--L--3--3--L--3--|
--2--L--2--L--2--2--L--2--|
--0--L--0--L--0--0--L--0--|
--------------------------|
--------------------------|


  E  E  E  E  E  E  E  E   
--L--3--3--L--3--3--3--3--|
--L--1--1--L--1--1--1--1--|
--L--2--2--L--2--2--2--2--|
--L--2--2--L--2--2--2--2--|
-----0--0--L--0--0--0--0--|
--------------------------|


  Q    E  E  E  E  E  E   
--3----3--3--3--3--3--3--|
--1----1--1--1--1--1--1--|
--0----0--0--0--0--0--0--|
--2----2--2--2--2--2--2--|
--3----3--3--3--3--3--3--|
-------------------------|


  E  E  E  E  E  E  E  E   
--3--3--3--L--3--3--3--3--|
--1--3--3--L--3--3--3--3--|
--0--0--0--L--0--0--0--0--|
--2--0--0--L--0--0--0--0--|
--3--2--2--L--2--2--2--2--|
-----3--3--L--3--3--3--3--|


  E  E  E  E  E  E  E  E   
--2--L--2--L--0--2--L--3--|
--3--L--3--L--3--3--L--3--|
--2--L--2--L--2--2--L--2--|
--0--L--0--L--0--0--L--0--|
--------------------------|
--------------------------|


  E  E  E  E  E  E  E  E   
--L--3--3--L--3--3--3--3--|
--L--1--1--L--1--1--1--1--|
--L--2--2--L--2--2--2--2--|
--L--2--2--L--2--2--2--2--|
-----0--0--L--0--0--0--0--|
--------------------------|


  Q    E  E  E  E  E  E   
--3----3--3--3--3--3--3--|
--1----1--1--1--1--1--1--|
--0----0--0--0--0--0--0--|
--2----2--2--2--2--2--2--|
--3----3--3--3--3--3--3--|
-------------------------|


  E   E   E   E   E   E   E  E   
--L-----------------------------|
--L-----------------------------|
--L--14--14--12--12--10--10-----|
--L---x---x---x---x---x---x-----|
--L--12--12--10--10---8---8-----|
--------------------------------|


  E  E  E  E  E  E  E  E   
--2--L--2--L--0--2--L--3--|
--3--L--3--L--3--3--L--3--|
--2--L--2--L--2--2--L--2--|
--0--L--0--L--0--0--L--0--|
--------------------------|
--------------------------|


  E  E  E  E  E  E  E  E   
--L--3--3--L--3--3--3--3--|
--L--1--1--L--1--1--1--1--|
--L--2--2--L--2--2--2--2--|
--L--2--2--L--2--2--2--2--|
-----0--0--L--0--0--0--0--|
--------------------------|


  Q    E  E  E  E  E  E   
--3----3--3--3--3--3--3--|
--1----1--1--1--1--1--1--|
--0----0--0--0--0--0--0--|
--2----2--2--2--2--2--2--|
--3----3--3--3--3--3--3--|
-------------------------|


  E  E  E  E  E  E  E  E   
--3--3--3--L--3--3--3--3--|
--1--3--3--L--3--3--3--3--|
--0--0--0--L--0--0--0--0--|
--2--0--0--L--0--0--0--0--|
--3--2--2--L--2--2--2--2--|
-----3--3--L--3--3--3--3--|


  E  E  E  E  E  E  E  E   
--2--L--2--L--0--2--L--3--|
--3--L--3--L--3--3--L--3--|
--2--L--2--L--2--2--L--2--|
--0--L--0--L--0--0--L--0--|
--------------------------|
--------------------------|


  E  E  E  E  E  E  E  E   
--L--3--3--L--3--3--3--3--|
--L--1--1--L--1--1--1--1--|
--L--2--2--L--2--2--2--2--|
--L--2--2--L--2--2--2--2--|
-----0--0--L--0--0--0--0--|
--------------------------|


  Q    E  E  E  E  E  E   
--3----3--3--3--3--3--3--|
--1----1--1--1--1--1--1--|
--0----0--0--0--0--0--0--|
--2----2--2--2--2--2--2--|
--3----3--3--3--3--3--3--|
-------------------------|


  E  E  E  E  E  E  E  E   
--L-----------------------|
--L-----------------------|
--L-----------------------|
--L-----------3-----3-----|
--L-----------3--5--3--0--|
-----3--3--5--------------|


   E   E   E   E  E   E   E   E   
--12----------12--L--------------|
------15-------------15---L------|
----------14-----------------14--|
---------------------------------|
---------------------------------|
---------------------------------|


   E   E   E   E  E   E   Q       
--------------15--L------15br----|
------13---L----------x----------|
--14-----------------------------|
---------------------------------|
---------------------------------|
---------------------------------|


  Q     E   E  E   E  E   E   
--L----13--12--L-------------|
------------------13--L------|
-------------------------12--|
-----------------------------|
-----------------------------|
-----------------------------|


  E   E   E   E   E   E   E   E   
---------------------------------|
-----------------13--15--13------|
--L----------12--------------14--|
-----15--15----------------------|
---------------------------------|
---------------------------------|


   E   E   E   E  E   E   E   E   
--12----------12--L--------------|
------15-------------15---L------|
----------14-----------------14--|
---------------------------------|
---------------------------------|
---------------------------------|


   E   E   E   E  E   E   Q       
--------------15--L------15br----|
------13---L----------x----------|
--14-----------------------------|
---------------------------------|
---------------------------------|
---------------------------------|


  Q     E   E  E   E  E   E   
--L----13--12--L-------------|
------------------13--L------|
-------------------------12--|
-----------------------------|
-----------------------------|
-----------------------------|


  E   E   E   E   E   E   E   E   
---------------------------------|
-----------------13--15--13------|
--L----------12--------------14--|
-----15--15----------------------|
---------------------------------|
---------------------------------|


   E   E   E   E  E   E   E   E   
--12----------12--L--------------|
------15-------------15---L------|
----------14-----------------14--|
---------------------------------|
---------------------------------|
---------------------------------|


   E   E   E   E  E   E   Q       
--------------15--L------15br----|
------13---L----------x----------|
--14-----------------------------|
---------------------------------|
---------------------------------|
---------------------------------|


  Q     E   E  E   E  E   E   
--L----13--12--L-------------|
------------------13--L------|
-------------------------12--|
-----------------------------|
-----------------------------|
-----------------------------|


  E   E   E   E   E   E   E   E   
---------------------------------|
-----------------13--15--13------|
--L----------12--------------14--|
-----15--15----------------------|
---------------------------------|
---------------------------------|


   E   E   E   E  E   E   E   E   
--12----------12--L--------------|
------15-------------15---L------|
----------14-----------------14--|
---------------------------------|
---------------------------------|
---------------------------------|


   E   E   E   E  E   E   Q       
--------------15--L------15br----|
------13---L----------x----------|
--14-----------------------------|
---------------------------------|
---------------------------------|
---------------------------------|


  Q     E   E  E   E  E   E   
--L----13--12--L-------------|
------------------13--L------|
-------------------------12--|
-----------------------------|
-----------------------------|
-----------------------------|


  E   E   E   E   E   E   Q     
-------------------------------|
-------------------------------|
--L--10--10--------------10----|
-------------12--10--12--------|
-------------------------------|
-------------------------------|


   W                   W                 
--------------------|-------------------|
--------------------|-------------------|
--------------------|-------------------|
--12----------------|--L----------------|
--------------------|-------------------|
--------------------|-------------------|


  W                   W                 
-------------------|-------------------|
-------------------|-------------------|
-------------------|-------------------|
--L----------------|--L----------------|
-------------------|-------------------|
-------------------|-------------------|


-------------------|-------------------||
-------------------|-------------------||
-------------------|-------------------||
-------------------|-------------------||
-------------------|-------------------||
-------------------|-------------------||



Dave Grohl - Rhythm Guitar



E||-------|-------|-------|-------|-------|
B||-------|-------|-------|-------|-------|
G||-------|-------|-------|-------|-------|
D||-------|-------|-------|-------|-------|
A||-------|-------|-------|-------|-------|
E||-------|-------|-------|-------|-------|


  Q    H.              W                 
-------2------------|--L----------------|
-------3------------|--L----------------|
-------2------------|--L----------------|
-------0------------|--L----------------|
-------0------------|--L----------------|
--------------------|-------------------|


  W                   W                 
--L----------------|--L----------------|
--L----------------|--L----------------|
--L----------------|--L----------------|
--L----------------|--L----------------|
--L----------------|--L----------------|
-------------------|-------------------|


-------|-------|-------|-------|-------|
-------|-------|-------|-------|-------|
-------|-------|-------|-------|-------|
-------|-------|-------|-------|-------|
-------|-------|-------|-------|-------|
-------|-------|-------|-------|-------|


  Q    Q    E  E  E  E   
--0----0----0--0--0--0--|
--1----1----1--1--1--1--|
--0----0----0--0--0--0--|
--2----2----2--2--2--2--|
--3----3----3--3--3--3--|
------------------------|


  E  E  Q    E  E  E  E   
-------------------------|
-------------------------|
-------------------------|
--5--5--5----5--5--5--5--|
--5--5--5----5--5--5--5--|
--3--3--3----3--3--3--3--|


  E  E  Q    H                         
----------------------|-------|-------|
----------------------|-------|-------|
----------------------|-------|-------|
--L-------------------|-------|-------|
--L-------------------|-------|-------|
--L-------------------|-------|-------|


-------|-------|-------|-------|-------|
-------|-------|-------|-------|-------|
-------|-------|-------|-------|-------|
-------|-------|-------|-------|-------|
-------|-------|-------|-------|-------|
-------|-------|-------|-------|-------|


                  Q    Q    E  E  E  E   
-------|-------|--0----0----0--0--0--0--|
-------|-------|--1----1----1--1--1--1--|
-------|-------|--0----0----0--0--0--0--|
-------|-------|--2----2----2--2--2--2--|
-------|-------|--3----3----3--3--3--3--|
-------|-------|------------------------|


  E  E  Q    E  E  E  E   
-------------------------|
-------------------------|
-------------------------|
--5--5--5----5--5--5--5--|
--5--5--5----5--5--5--5--|
--3--3--3----3--3--3--3--|


  E  E  Q    H                 
----------------------|-------|
----------------------|-------|
----------------------|-------|
--L-------------------|-------|
--L-------------------|-------|
--L-------------------|-------|


  E  E  Q    H                 
----------------------|-------|
----------------------|-------|
----------------------|-------|
----------------------|-------|
----------------------|-------|
----------------------|-------|


  E  E  Q    H         
----------------------|
----------------------|
----------------------|
----------------------|
----------------------|
----------------------|


  E  E  E  E  E  E  E  E   
--2--L--2--L--0--2--L--3--|
--3--L--3--L--3--3--L--3--|
--2--L--2--L--2--2--L--2--|
--0--L--0--L--0--0--L--0--|
--------------------------|
--------------------------|


  E  E  E  E  E  E  E  E   
--L--3--3--L--3--3--3--3--|
--L--1--1--L--1--1--1--1--|
--L--2--2--L--2--2--2--2--|
--L--2--2--L--2--2--2--2--|
-----0--0--L--0--0--0--0--|
--------------------------|


  Q    E  E  E  E  E  E   
--3----3--3--3--3--3--3--|
--1----1--1--1--1--1--1--|
--0----0--0--0--0--0--0--|
--2----2--2--2--2--2--2--|
--3----3--3--3--3--3--3--|
-------------------------|


  E  E  E  E  E  E  E  E   
--3--3--3--L--3--3--3--3--|
--1--3--3--L--3--3--3--3--|
--0--0--0--L--0--0--0--0--|
--2--0--0--L--0--0--0--0--|
--3--2--2--L--2--2--2--2--|
-----3--3--L--3--3--3--3--|


  E  E  E  E  E  E  E  E   
--2--L--2--L--0--2--L--3--|
--3--L--3--L--3--3--L--3--|
--2--L--2--L--2--2--L--2--|
--0--L--0--L--0--0--L--0--|
--------------------------|
--------------------------|


  E  E  E  E  E  E  E  E   
--L--3--3--L--3--3--3--3--|
--L--1--1--L--1--1--1--1--|
--L--2--2--L--2--2--2--2--|
--L--2--2--L--2--2--2--2--|
-----0--0--L--0--0--0--0--|
--------------------------|


  Q    E  E  E  E  E  E   
--3----3--3--3--3--3--3--|
--1----1--1--1--1--1--1--|
--0----0--0--0--0--0--0--|
--2----2--2--2--2--2--2--|
--3----3--3--3--3--3--3--|
-------------------------|


  E  E  E  E  E  E  E  E   
--1--1--1--1--1--1--1--1--|
--1--1--1--1--1--1--1--1--|
--2--2--2--2--2--2--2--2--|
--3--3--3--3--3--3--3--3--|
--3--3--3--3--3--3--3--3--|
--1--1--1--1--1--1--1--1--|


  E  E  E  E  E  E  E  E   
--2--L--2--L--0--2--L--3--|
--3--L--3--L--3--3--L--3--|
--2--L--2--L--2--2--L--2--|
--0--L--0--L--0--0--L--0--|
--------------------------|
--------------------------|


  E  E  E  E  E  E  E  E   
--L--3--3--L--3--3--3--3--|
--L--1--1--L--1--1--1--1--|
--L--2--2--L--2--2--2--2--|
--L--2--2--L--2--2--2--2--|
-----0--0--L--0--0--0--0--|
--------------------------|


  Q    E  E  E  E  E  E   
--3----3--3--3--3--3--3--|
--1----1--1--1--1--1--1--|
--0----0--0--0--0--0--0--|
--2----2--2--2--2--2--2--|
--3----3--3--3--3--3--3--|
-------------------------|


  E  E  E  E  E  E  E  E   
--3--3--3--L--3--3--3--3--|
--1--3--3--L--3--3--3--3--|
--0--0--0--L--0--0--0--0--|
--2--0--0--L--0--0--0--0--|
--3--2--2--L--2--2--2--2--|
-----3--3--L--3--3--3--3--|


  E  E  E  E  E  E  E  E   
--2--L--2--L--0--2--L--3--|
--3--L--3--L--3--3--L--3--|
--2--L--2--L--2--2--L--2--|
--0--L--0--L--0--0--L--0--|
--------------------------|
--------------------------|


  E  E  E  E  E  E  E  E   
--L--3--3--L--3--3--3--3--|
--L--1--1--L--1--1--1--1--|
--L--2--2--L--2--2--2--2--|
--L--2--2--L--2--2--2--2--|
-----0--0--L--0--0--0--0--|
--------------------------|


  Q    E  E  E  E  E  E   
--3----3--3--3--3--3--3--|
--1----1--1--1--1--1--1--|
--0----0--0--0--0--0--0--|
--2----2--2--2--2--2--2--|
--3----3--3--3--3--3--3--|
-------------------------|


  E  E  Q    H           Q    H.            
----------------------|-------2------------|
----------------------|-------3------------|
----------------------|-------2------------|
--L-------------------|-------0------------|
--L-------------------|-------0------------|
--L-------------------|--------------------|


  W                   W                 
--L----------------|--L----------------|
--L----------------|--L----------------|
--L----------------|--L----------------|
--L----------------|--L----------------|
--L----------------|--L----------------|
-------------------|-------------------|


  W                                         
--L----------------|-------|-------|-------|
--L----------------|-------|-------|-------|
--L----------------|-------|-------|-------|
--L----------------|-------|-------|-------|
--L----------------|-------|-------|-------|
-------------------|-------|-------|-------|


                  Q    Q    E  E  E  E   
-------|-------|--0----0----0--0--0--0--|
-------|-------|--1----1----1--1--1--1--|
-------|-------|--0----0----0--0--0--0--|
-------|-------|--2----2----2--2--2--2--|
-------|-------|--3----3----3--3--3--3--|
-------|-------|------------------------|


  E  E  Q    E  E  E  E   
-------------------------|
-------------------------|
-------------------------|
--5--5--5----5--5--5--5--|
--5--5--5----5--5--5--5--|
--3--3--3----3--3--3--3--|


  E  E  Q    H           Q    H.            
----------------------|-------2------------|
----------------------|-------3------------|
----------------------|-------2------------|
--L-------------------|-------0------------|
--L-------------------|-------0------------|
--L-------------------|--------------------|


  W                   W                 
--L----------------|--L----------------|
--L----------------|--L----------------|
--L----------------|--L----------------|
--L----------------|--L----------------|
--L----------------|--L----------------|
-------------------|-------------------|


  W                                         
--L----------------|-------|-------|-------|
--L----------------|-------|-------|-------|
--L----------------|-------|-------|-------|
--L----------------|-------|-------|-------|
--L----------------|-------|-------|-------|
-------------------|-------|-------|-------|


                  Q    Q    E  E  E  E   
-------|-------|--0----0----0--0--0--0--|
-------|-------|--1----1----1--1--1--1--|
-------|-------|--0----0----0--0--0--0--|
-------|-------|--2----2----2--2--2--2--|
-------|-------|--3----3----3--3--3--3--|
-------|-------|------------------------|


  E  E  Q    E  E  E  E   
-------------------------|
-------------------------|
-------------------------|
--5--5--5----5--5--5--5--|
--5--5--5----5--5--5--5--|
--3--3--3----3--3--3--3--|


  E  E  Q    H           Q    H.            
----------------------|-------2------------|
----------------------|-------3------------|
----------------------|-------2------------|
--L-------------------|-------0------------|
--L-------------------|-------0------------|
--L-------------------|--------------------|


  Q    Q    Q    Q       Q    H.            
--L-------------------|-------2------------|
--L-------------------|-------3------------|
--L-------------------|-------2------------|
--L-------------------|-------0------------|
--L-------------------|-------0------------|
----------------------|--------------------|


  Q    Q    Q    Q     
--L-------------------|
--L-------------------|
--L-------------------|
--L-------------------|
--L-------------------|
----------------------|


  E  E  E  E  E  E  E  E   
--2--L--2--L--0--2--L--3--|
--3--L--3--L--3--3--L--3--|
--2--L--2--L--2--2--L--2--|
--0--L--0--L--0--0--L--0--|
--------------------------|
--------------------------|


  E  E  E  E  E  E  E  E   
--L--3--3--L--3--3--3--3--|
--L--1--1--L--1--1--1--1--|
--L--2--2--L--2--2--2--2--|
--L--2--2--L--2--2--2--2--|
-----0--0--L--0--0--0--0--|
--------------------------|


  Q    E  E  E  E  E  E   
--3----3--3--3--3--3--3--|
--1----1--1--1--1--1--1--|
--0----0--0--0--0--0--0--|
--2----2--2--2--2--2--2--|
--3----3--3--3--3--3--3--|
-------------------------|


  E  E  E  E  E  E  E  E   
--3--3--3--L--3--3--3--3--|
--1--3--3--L--3--3--3--3--|
--0--0--0--L--0--0--0--0--|
--2--0--0--L--0--0--0--0--|
--3--2--2--L--2--2--2--2--|
-----3--3--L--3--3--3--3--|


  E  E  E  E  E  E  E  E   
--2--L--2--L--0--2--L--3--|
--3--L--3--L--3--3--L--3--|
--2--L--2--L--2--2--L--2--|
--0--L--0--L--0--0--L--0--|
--------------------------|
--------------------------|


  E  E  E  E  E  E  E  E   
--L--3--3--L--3--3--3--3--|
--L--1--1--L--1--1--1--1--|
--L--2--2--L--2--2--2--2--|
--L--2--2--L--2--2--2--2--|
-----0--0--L--0--0--0--0--|
--------------------------|


  Q    E  E  E  E  E  E   
--3----3--3--3--3--3--3--|
--1----1--1--1--1--1--1--|
--0----0--0--0--0--0--0--|
--2----2--2--2--2--2--2--|
--3----3--3--3--3--3--3--|
-------------------------|


  E  E  E  E  E  E  E  E   
--1--1--1--1--1--1--1--1--|
--1--1--1--1--1--1--1--1--|
--2--2--2--2--2--2--2--2--|
--3--3--3--3--3--3--3--3--|
--3--3--3--3--3--3--3--3--|
--1--1--1--1--1--1--1--1--|


  E  E  E  E  E  E  E  E   
--2--L--2--L--0--2--L--3--|
--3--L--3--L--3--3--L--3--|
--2--L--2--L--2--2--L--2--|
--0--L--0--L--0--0--L--0--|
--------------------------|
--------------------------|


  E  E  E  E  E  E  E  E   
--L--3--3--L--3--3--3--3--|
--L--1--1--L--1--1--1--1--|
--L--2--2--L--2--2--2--2--|
--L--2--2--L--2--2--2--2--|
-----0--0--L--0--0--0--0--|
--------------------------|


  Q    E  E  E  E  E  E   
--3----3--3--3--3--3--3--|
--1----1--1--1--1--1--1--|
--0----0--0--0--0--0--0--|
--2----2--2--2--2--2--2--|
--3----3--3--3--3--3--3--|
-------------------------|


  E  E  E  E  E  E  E  E   
--3--3--3--L--3--3--3--3--|
--1--3--3--L--3--3--3--3--|
--0--0--0--L--0--0--0--0--|
--2--0--0--L--0--0--0--0--|
--3--2--2--L--2--2--2--2--|
-----3--3--L--3--3--3--3--|


  E  E  E  E  E  E  E  E   
--2--L--2--L--0--2--L--3--|
--3--L--3--L--3--3--L--3--|
--2--L--2--L--2--2--L--2--|
--0--L--0--L--0--0--L--0--|
--------------------------|
--------------------------|


  E  E  E  E  E  E  E  E   
--L--3--3--L--3--3--3--3--|
--L--1--1--L--1--1--1--1--|
--L--2--2--L--2--2--2--2--|
--L--2--2--L--2--2--2--2--|
-----0--0--L--0--0--0--0--|
--------------------------|


  Q    E  E  E  E  E  E   
--3----3--3--3--3--3--3--|
--1----1--1--1--1--1--1--|
--0----0--0--0--0--0--0--|
--2----2--2--2--2--2--2--|
--3----3--3--3--3--3--3--|
-------------------------|


  E  E  Q    H         
----------------------|
----------------------|
----------------------|
--L-------------------|
--L-------------------|
--L-------------------|


  E   E  E  E  E  E  E  E   
---------------------------|
--6p--5-----3--L--------1--|
--5---------------2--------|
--0------0-----------0-----|
---------------------------|
---------------------------|


  E  E  E  E  E  E  E  E   
-----------0--L-----------|
--L--3-----------3--------|
--------------------------|
--------0-----------0--0--|
--------------------------|
--------------------------|


  E   E  E  E  E  E  E  E   
---------------------------|
--6p--5-----3--L--------3--|
--5---------------2--------|
--0------0-----------0-----|
---------------------------|
---------------------------|


  E  E  E  E  E  E  E  E   
-----------0--L-----------|
--L--------------3--------|
-----2--------------------|
--------0-----------0--0--|
--------------------------|
--------------------------|


  E   E  E  E  E  E  E  E   
---------------------------|
--6p--5-----3--L--------1--|
--5---------------2--------|
--0------0-----------0-----|
---------------------------|
---------------------------|


  Q    E  E  E  E  E  E   
--3----3--3--3--3--3--3--|
--1----1--1--1--1--1--1--|
--0----0--0--0--0--0--0--|
--2----2--2--2--2--2--2--|
--3----3--3--3--3--3--3--|
-------------------------|


  E  E  E  E  E  E  E  E   
--3--3--3--L--3--3--3--3--|
--1--3--3--L--3--3--3--3--|
--0--0--0--L--0--0--0--0--|
--2--0--0--L--0--0--0--0--|
--3--2--2--L--2--2--2--2--|
-----3--3--L--3--3--3--3--|


  E  E  E  E  E  E  E  E   
-----------------------2--|
-----------------------3--|
--0--0--0--0--0--0--0--2--|
--3--3--3--3--3--3--3--0--|
--3--3--3--3--3--3--3--0--|
--1--1--1--1--1--1--1-----|


  E  E  E  E  E  E  E  E   
--L--2--2--2--2--2--2--2--|
--L--3--3--3--3--3--3--3--|
--L--2--2--2--2--2--2--2--|
--L--0--0--0--0--0--0--0--|
--L--0--0--0--0--0--0--0--|
--------------------------|


  E  E  E  E  E  E  E  E   
-----------------------2--|
-----------------------3--|
--0--0--0--0--0--0--0--2--|
--3--3--3--3--3--3--3--0--|
--3--3--3--3--3--3--3--0--|
--1--1--1--1--1--1--1-----|


  E  E  E  E  E  E  E  E   
--L--2--2--2--2--2--2--2--|
--L--3--3--3--3--3--3--3--|
--L--2--2--2--2--2--2--2--|
--L--0--0--0--0--0--0--0--|
--L--0--0--0--0--0--0--0--|
--------------------------|


  E  E  E  E  E  E  E  E   
-----------------------3--|
-----------------------1--|
--0--0--0--0--0--0--0--0--|
--3--3--3--3--3--3--3--2--|
--3--3--3--3--3--3--3--3--|
--1--1--1--1--1--1--1-----|


  E  E  E  E  E  E  E  E   
--L--3--3--3--3--3--3--3--|
--L--1--1--1--1--1--1--1--|
--L--0--0--0--0--0--0--0--|
--L--2--2--2--2--2--2--2--|
--L--3--3--3--3--3--3--3--|
--------------------------|


  E  E  E  E  E  E  E  E   
--3--3--L--3--3--3--3--3--|
--1--3--L--3--3--3--3--3--|
--0--0--L--0--0--0--0--0--|
--2--0--L--0--0--0--0--0--|
--3--2--L--2--2--2--2--2--|
-----3--L--3--3--3--3--3--|


  E  E  E  E  E  E  E  E   
--3-----------------------|
--3-----------------------|
--0-----------------------|
--0-----------3-----3-----|
--2-----------3--5--3--0--|
--3--3--3--5--------------|


  E  E  E  E  E  E  E  E   
--2--L--2--L--0--2--L--3--|
--3--L--3--L--3--3--L--3--|
--2--L--2--L--2--2--L--2--|
--0--L--0--L--0--0--L--0--|
--------------------------|
--------------------------|


  E  E  E  E  E  E  E  E   
--L--3--3--L--3--3--3--3--|
--L--1--1--L--1--1--1--1--|
--L--2--2--L--2--2--2--2--|
--L--2--2--L--2--2--2--2--|
-----0--0--L--0--0--0--0--|
--------------------------|


  Q    E  E  E  E  E  E   
--3----3--3--3--3--3--3--|
--1----1--1--1--1--1--1--|
--0----0--0--0--0--0--0--|
--2----2--2--2--2--2--2--|
--3----3--3--3--3--3--3--|
-------------------------|


  E  E  E  E  E  E  E  E   
--3--3--3--L--3--3--3--3--|
--1--3--3--L--3--3--3--3--|
--0--0--0--L--0--0--0--0--|
--2--0--0--L--0--0--0--0--|
--3--2--2--L--2--2--2--2--|
-----3--3--L--3--3--3--3--|


  E  E  E  E  E  E  E  E   
--2--L--2--L--0--2--L--3--|
--3--L--3--L--3--3--L--3--|
--2--L--2--L--2--2--L--2--|
--0--L--0--L--0--0--L--0--|
--------------------------|
--------------------------|


  E  E  E  E  E  E  E  E   
--L--3--3--L--3--3--3--3--|
--L--1--1--L--1--1--1--1--|
--L--2--2--L--2--2--2--2--|
--L--2--2--L--2--2--2--2--|
-----0--0--L--0--0--0--0--|
--------------------------|


  Q    E  E  E  E  E  E   
--3----3--3--3--3--3--3--|
--1----1--1--1--1--1--1--|
--0----0--0--0--0--0--0--|
--2----2--2--2--2--2--2--|
--3----3--3--3--3--3--3--|
-------------------------|


  E  E  E  E  E  E  E  E   
--1--1--1--1--1--1--1--1--|
--1--1--1--1--1--1--1--1--|
--2--2--2--2--2--2--2--2--|
--3--3--3--3--3--3--3--3--|
--3--3--3--3--3--3--3--3--|
--1--1--1--1--1--1--1--1--|


  E  E  E  E  E  E  E  E   
--2--L--2--L--0--2--L--3--|
--3--L--3--L--3--3--L--3--|
--2--L--2--L--2--2--L--2--|
--0--L--0--L--0--0--L--0--|
--------------------------|
--------------------------|


  E  E  E  E  E  E  E  E   
--L--3--3--L--3--3--3--3--|
--L--1--1--L--1--1--1--1--|
--L--2--2--L--2--2--2--2--|
--L--2--2--L--2--2--2--2--|
-----0--0--L--0--0--0--0--|
--------------------------|


  Q    E  E  E  E  E  E   
--3----3--3--3--3--3--3--|
--1----1--1--1--1--1--1--|
--0----0--0--0--0--0--0--|
--2----2--2--2--2--2--2--|
--3----3--3--3--3--3--3--|
-------------------------|


  E  E  E  E  E  E  E  E   
--3--3--3--L--3--3--3--3--|
--1--3--3--L--3--3--3--3--|
--0--0--0--L--0--0--0--0--|
--2--0--0--L--0--0--0--0--|
--3--2--2--L--2--2--2--2--|
-----3--3--L--3--3--3--3--|


  E  E  E  E  E  E  E  E   
--2--L--2--L--0--2--L--3--|
--3--L--3--L--3--3--L--3--|
--2--L--2--L--2--2--L--2--|
--0--L--0--L--0--0--L--0--|
--------------------------|
--------------------------|


  E  E  E  E  E  E  E  E   
--L--3--3--L--3--3--3--3--|
--L--1--1--L--1--1--1--1--|
--L--2--2--L--2--2--2--2--|
--L--2--2--L--2--2--2--2--|
-----0--0--L--0--0--0--0--|
--------------------------|


  Q    E  E  E  E  E  E   
--3----3--3--3--3--3--3--|
--1----1--1--1--1--1--1--|
--0----0--0--0--0--0--0--|
--2----2--2--2--2--2--2--|
--3----3--3--3--3--3--3--|
-------------------------|


  E  E  Q    H         
----------------------|
----------------------|
----------------------|
--L-------------------|
--L-------------------|
--L-------------------|


  E  E  E  E  E  E  E  E   
--2--L--2--L--0--2--L--3--|
--3--L--3--L--3--3--L--3--|
--2--L--2--L--2--2--L--2--|
--0--L--0--L--0--0--L--0--|
--------------------------|
--------------------------|


  E  E  E  E  E  E  E  E   
--L--3--3--L--3--3--3--3--|
--L--1--1--L--1--1--1--1--|
--L--2--2--L--2--2--2--2--|
--L--2--2--L--2--2--2--2--|
-----0--0--L--0--0--0--0--|
--------------------------|


  Q    E  E  E  E  E  E   
--3----3--3--3--3--3--3--|
--1----1--1--1--1--1--1--|
--0----0--0--0--0--0--0--|
--2----2--2--2--2--2--2--|
--3----3--3--3--3--3--3--|
-------------------------|


  E  E  E  E  E  E  E  E   
--3-----------------------|
--1-----------------------|
--0-----------------------|
--2-----------3-----3-----|
--3-----------3--5--3--0--|
-----3--3--5--------------|


  E  E  E  E  E  E  E  E   
--2--L--2--L--0--2--L--3--|
--3--L--3--L--3--3--L--3--|
--2--L--2--L--2--2--L--2--|
--0--L--0--L--0--0--L--0--|
--------------------------|
--------------------------|


  E  E  E  E  E  E  E  E   
--L--3--3--L--3--3--3--3--|
--L--1--1--L--1--1--1--1--|
--L--2--2--L--2--2--2--2--|
--L--2--2--L--2--2--2--2--|
-----0--0--L--0--0--0--0--|
--------------------------|


  Q    E  E  E  E  E  E   
--3----3--3--3--3--3--3--|
--1----1--1--1--1--1--1--|
--0----0--0--0--0--0--0--|
--2----2--2--2--2--2--2--|
--3----3--3--3--3--3--3--|
-------------------------|


  E  E  E  E  E  E  E  E   
--3-----------------------|
--1-----------------------|
--0-----------------------|
--2-----------3-----3-----|
--3-----------3--5--3--0--|
-----3--3--5--------------|


  E  E  E  E  E  E  E  E   
--2--L--2--L--0--2--L--3--|
--3--L--3--L--3--3--L--3--|
--2--L--2--L--2--2--L--2--|
--0--L--0--L--0--0--L--0--|
--------------------------|
--------------------------|


  E  E  E  E  E  E  E  E   
--L--3--3--L--3--3--3--3--|
--L--1--1--L--1--1--1--1--|
--L--2--2--L--2--2--2--2--|
--L--2--2--L--2--2--2--2--|
-----0--0--L--0--0--0--0--|
--------------------------|


  Q    E  E  E  E  E  E   
--3----3--3--3--3--3--3--|
--1----1--1--1--1--1--1--|
--0----0--0--0--0--0--0--|
--2----2--2--2--2--2--2--|
--3----3--3--3--3--3--3--|
-------------------------|


  E  E  E  E  E  E  E  E   
--3-----------------------|
--1-----------------------|
--0-----------------------|
--2-----------3-----3-----|
--3-----------3--5--3--0--|
-----3--3--5--------------|


  E  E  E  E  E  E  E  E   
--2--L--2--L--0--2--L--3--|
--3--L--3--L--3--3--L--3--|
--2--L--2--L--2--2--L--2--|
--0--L--0--L--0--0--L--0--|
--------------------------|
--------------------------|


  E  E  E  E  E  E  E  E   
--L--3--3--L--3--3--3--3--|
--L--1--1--L--1--1--1--1--|
--L--2--2--L--2--2--2--2--|
--L--2--2--L--2--2--2--2--|
-----0--0--L--0--0--0--0--|
--------------------------|


  Q    E  E  E  E  E  E   
--3----3--3--3--3--3--3--|
--1----1--1--1--1--1--1--|
--0----0--0--0--0--0--0--|
--2----2--2--2--2--2--2--|
--3----3--3--3--3--3--3--|
-------------------------|


  E  E  E  E  E  E  E  E   
--3-----------------------|
--1-----------------------|
--0-----------------------|
--2-----------3-----3-----|
--3-----------3--5--3--0--|
-----3--3--5--------------|


  Q    H.              W                 
-------2------------|--L----------------|
-------3------------|--L----------------|
-------2------------|--L----------------|
--0----0------------|--L----------------|
-------0------------|--L----------------|
--------------------|-------------------|


  W                   W                 
--L----------------|--L----------------|
--L----------------|--L----------------|
--L----------------|--L----------------|
--L----------------|--L----------------|
--L----------------|--L----------------|
-------------------|-------------------|


-------------------|-------------------||
-------------------|-------------------||
-------------------|-------------------||
-------------------|-------------------||
-------------------|-------------------||
-------------------|-------------------||




Duration Legend
---------------
W - whole
H - half
Q - quarter
E - 8th
S - 16th
T - 32nd
X - 64th
. - note dotted
|-n-|  - n-tuplets


Tablature Legend
----------------
L - tied note
x - dead note
g - grace note
(n) - ghost note
> - accentuded note
NH - natural harmonic
AH - artificial harmonic
TH - tapped harmonic
SH - semi harmonic
PH - pitch harmonic
h - hammer on
p - pull off
b - bend
br - bendRelease
pb - preBend
pbr - preBendRelease
brb - bendReleaseBend
\n/ - tremolo bar dip
\n - tremolo bar dive
-/n - tremolo bar Release up
/n\ - tremolo bar inverted dip
/n - tremolo bar return
-\n - tremolo bar Release down
S - shift slide
s - legato slide
/ -  slide into from below or out of upwards
\ -  slide into from above or out of downwards
~ - vibrato
W - wide vibrato
tr - trill
TP - tremolo picking
T - tapping
S - slap
P - pop
< - fade in
^ - brush up
v - brush down
Tap to rate this tab
# A B C D E F G H I J K L M N O P Q R S T U V W X Y Z