Song name
# A B C D E F G H I J K L M N O P Q R S T U V W X Y Z

Foo Fighters - Someone tab

Foo Fighters - someone new
Album: In Your Honor
Tuning: Standard (E A D G B e)



Intro/Verse
Gtr. 1
C# A
e|---0--------------|----0-----------| 
B|---0--------------|----0-----------| 
G|---4--------------|----4-----------| (x2) 
D|---2--------------|----2-----------| 
A|---4--------------|----0-----------| 
E|------------------|----------------| 

B A
e|---0--------------|----0-----------|
B|---0--------------|----0-----------|
G|---4--------------|----4-----------|
D|---4--------------|----2-----------|
A|---2--------------|----0-----------|
E|------------------|----------------|

Gtr. 2
e|--0-0-0-0-0-0-0-0--0-0-0-0-0-0-0-0/0--0--0---|
B|--0-0-0-0-0-0-0-0--0-0-0-0-0-0-0-0/0--0--0---|
G|--6-6-6-6-6-6-6-6--9-9-9-9-9-9-9-9/11-11-11--| (x2)
D|--6-6-6-6-6-6-6-6--9-9-9-9-9-9-9-9/11-11-11--|
A|---------------------------------------------|
E|---------------------------------------------|

e|--0-0-0-0-0-0-0-0-0-0-0-0-0-0-0-0-0-0-0-0--|
B|--0-0-0-0-0-0-0-0-0-0-0-0-0-0-0-0-0-0-0-0--|
G|--8-8-8-8-8-8/6/4-4-4-4-4-4/6/9-9-9-9-9-9--|
D|--9-9-9-9-9-9/6/4-4-4-4-4-4/6/9-9-9-9-9-9--|
A|-------------------------------------------|
E|-------------------------------------------|


Chorus
Gtr. 1 soft
C# Eb/E A A
e|---0--------------|----0---------------|---0--------------|----0---------------|
B|---0--------------|----0---------------|---0--------------|----0---------------|
G|---4--------------|----4---------------|---4--------------|----4---------------| (x3)
D|---2--------------|----1---------------|---2--------------|----2---------------|
A|---4--------------|----x---------------|---0--------------|----0---------------|
E|------------------|----0---------------|------------------|--------------------|

Gtr. 1 heavy
C# A B A
e|---0--------------|----0-----------|      e|---0--------------|----0----------|
B|---0--------------|----0-----------|      B|---0--------------|----0----------|
G|---4--------------|----4-----------| (x2) G|---4--------------|----4----------|
D|---2--------------|----2-----------|      D|---4--------------|----2----------|
A|---4--------------|----0-----------|      A|---2--------------|----0----------|
E|------------------|----------------|      E|------------------|---------------|

C# A B A
e|---0--------------|----0-----------| e|---0--------------|----0----------|
B|---0--------------|----0-----------| B|---0--------------|----0----------|
G|---4--------------|----4-----------| (x2) G|---4--------------|----4----------|
D|---2--------------|----2-----------| D|---4--------------|----2----------|
A|---4--------------|----0-----------| A|---2--------------|----0----------|
E|------------------|----------------| E|------------------|-------- ------|	

Gtr. 1 heavy
C# Eb/E A F#
e|---0--------------|----0---------------|---0--------------|----0---------------|
B|---0--------------|----0---------------|---0--------------|----0---------------|
G|---4--------------|----4---------------|---4--------------|----3---------------| (x4)
D|---2--------------|----1---------------|---2--------------|----4---------------|
A|---4--------------|----x---------------|---0--------------|----4---------------|
E|------------------|----0---------------|------------------|----2---------------|

Gtr. 2
e|-----------------------------------------------------------------------------|
B|-----------------------------------------------------------------------------|
G|--6-6-6-6-6-6-6-6-|8-8-8-8-8-8-8-8-|9-9-9-9-9-9-9-9-|11-11-11-11-11-11-11-11-|
D|--x-x-x-x-x-x-x-x-|x-x-x-x-x-x-x-x-|x-x-x-x-x-x-x-x-|x--x--x--x--x--x--x--x--| (x2)
A|--4-4-4-4-4-4-4-4-|6-6-6-6-6-6-6-6-|7-7-7-7-7-7-7-7-|9--9--9--9--9--9--9--9--|
E|-----------------------------------------------------------------------------|

e|-------------------|------------------|------------------|-------------------|
B|-------------------|------------------|------------------|-------------------|
G|-13-13-13-13-13-13-|16-16-16-16-16-16-|18-18-18-18-18-18-|15-15-15-15-18-18*-|
D|-x--x--x--x--x--x--|x--x--x--x--x--x--|x--x--x--x--x--x--|x--x--x--x--x--x-*-|
A|-11-11-11-11-11-11-|14-14-14-14-14-14-|16-16-16-16-16-16-|13-13-13-13-16-16*-| *=first time only
E|-------------------|------------------|------------------|-------------------|


Interlude
Gtr. Lead (Strum octaves really fast)
e|----------------------------------|--------------------------------|
B|----------------------------------|--------------------------------|
G|--13--13--13--13--13--13--13--13--|--13--13--13--13--16---13---16--|
D|--x---x---x---x---x---x---x---x---|--x---x---x---x---x----x----x---|
A|--11--11--11--11--11--11--11--11--|--11--11--11--11--14---11---14--|
E|----------------------------------|--------------------------------|

e|----------------------------------|----------------------------------|
B|----------------------------------|----------------------------------|
G|--18--18--18--18--16--16--16--16--|--16--16--16--16--16--16--16--16--|
D|--x---x---x---x---x---x---x---x---|--x---x---x---x---x---x---x---x---|
A|--16--16--16--16--14--14--14--14--|--14--14--14--14--14--14--14--14--|
E|----------------------------------|----------------------------------|

e|----------------------------------|--------------------------------|
B|----------------------------------|--------------------------------|
G|--13--13--13--13--13--13--13--13--|--13--13--13--13--16---13---16--|
D|--x---x---x---x---x---x---x---x---|--x---x---x---x---x----x----x---|
A|--11--11--11--11--11--11--11--11--|--11--11--11--11--14---11---14--|
E|----------------------------------|--------------------------------|

e|----------------------------------|----------------------------------|
B|----------------------------------|----------------------------------|
G|--18--18--18--18--18--18--18--18--|--18--18--18--18--18--18--18--18--|
D|--x---x---x---x---x---x---x---x---|--x---x---x---x---x---x---x---x---|
A|--16--16--16--16--16--16--16--16--|--16--16--16--16--16--16--16--16--|
E|----------------------------------|----------------------------------|


Interlude
e|------------------------------|----------x-x-x-|-----------|
B|------------------------------|----------x-x-x-|-----------|
G|--11-11-9-8-|13-13-11-9-----9-|11-11-9-8-x-x-x-|13-13-11-9-|
D|--x--x--x-x-|x--x--x--x-----x-|x--x--x-x-x-x-x-|x--x--x--x-|
A|--9--9--7-6-|11-11-9--7-7-7-7-|9--9--7-6-x-x-x-|11-13-9--7-|
E|------------|-----------0-0---|----------x-x-x-|-----------|
(ooh ooh oh...) PM . .

e|-----|
B|-----|
G|--13-| This is played continously behind the main 2 guitars, using a wah and possibly a phaser...
D|--x--|
A|--11-|
E|-----|


Last Verse
C#	 A	 B	 A
e|---0--------------|----0-----------| e|---0--------------|----0-----------|
B|---0--------------|----0-----------| B|---0--------------|----0-----------|
G|---4--------------|----4-----------| (x2) G|---4--------------|----4-----------|
D|---2--------------|----2-----------| D|---4--------------|----2-----------|
A|---4--------------|----0-----------| A|---2--------------|----0-----------|
E|------------------|----------------| E|------------------|----------------|

C#	 Eb/E	 A	 F#
e|---0--------------|----0---------------|---0--------------|----0---------------|
B|---0--------------|----0---------------|---0--------------|----0---------------|
G|---4--------------|----4---------------|---4--------------|----3---------------| (x4)
D|---2--------------|----1---------------|---2--------------|----4---------------|
A|---4--------------|----x---------------|---0--------------|----4---------------|
E|------------------|----0---------------|------------------|----2---------------|


Outro
C# C#
e|---0-0----x-x-x--|----0-0----x-x-x---|	
B|---0-0----x-x-x--|----0-0----x-x-x---|	
G|---4-4----x-x-x--|----4-4----x-x-x---|
D|---2-2----x-x-x--|----2-2----x-x-x---|
A|---4-4----x-x-x--|----4-4----x-x-x---|
E|-----------x-x-x--|------------x-x-x---|

Tap to rate this tab
 
# A B C D E F G H I J K L M N O P Q R S T U V W X Y Z