Song name
# A B C D E F G H I J K L M N O P Q R S T U V W X Y Z

Foo Fighters - Blackbird tab

Foo Fighters - Blackbird (Beatles version)
(Normal Tuning)


Pick with thumb and finger.
e|------------------------------------------------------------------------------------|
B|-0---1----3----12------12--12-----12----5---8---7---10---8-----8----8-----8-----7-8-|
G|---0---0----0-----0------0----0------0----0---0---0----0---0-----0----0-----0-------|
D|------------------------------------------------------------------------------------|
A|-----0----2----10---10-----10---10------4---7---6---9----7---7------6---6-------6-5-|
E|-3----------------------------------------------------------------------------------|


e|-----------------------------------------------------------------------------|
B|-5----5----4----4-----3----3----2-----2----1----1----0-----0---0---0-----0---|
G|---0----0----0----0-----0----0----0-----0----0---0-----0-----0---0---0-----0-|
D|-----------------------------------------------------------------------------|
A|-4---4-----3---3------2---2-----1---1------0---0-----------------------------|
E|-----------------------------------------------------3---3-----3---3---3-----|


Keep repeating till end and play a G.

_____________________
http://www.fftabs.com
Tap to rate this tab
# A B C D E F G H I J K L M N O P Q R S T U V W X Y Z