Song name
# A B C D E F G H I J K L M N O P Q R S T U V W X Y Z

Foo Fighters - Wheels tab

I've done this by acoustic guitar because i think this song will be great when the Foo 
do it acoustic but i'm guessing the tab will be ok for an electric tab

All parts of the song are pretty similar so hopefully it should be easy to follow.....

For the song i found there are two ways to play, pick which you prefer...


Intro:

e|--0--0--0--0--x--|0--0--0--0--0--0--    |0-0-0-0-0-0----|
B|--3--3--2--2--x--|2--2--0--0--0--0--    |0-0-0-0-0-0----|
G|--2--2--2--2--x--|2--2--0--0--1--1--    |6-6-6-6-1-1----|
D|--0--0--2--2--x--|2--2--2--2--2--2--    |7-7-7-7-2-2----|
A|--0--0--0--0--x--|2--2--2--2--2--2--    |7-7-7-7-2-2----|
E|--x--x--x--x--x--|0--0--0--0--0--0--    |5-5-4-4-0-0----|

                           1st way            2nd way

Verse:

e|--0--0--0--0--x--|0--0--0--0--0--0--    |0-0-0-0-0-0----|
B|--3--3--2--2--x--|2--2--0--0--0--0--    |0-0-0-0-0-0----|
G|--2--2--2--2--x--|2--2--0--0--1--1--    |6-6-6-6-1-1----|
D|--0--0--2--2--x--|2--2--2--2--2--2--    |7-7-7-7-2-2----|
A|--0--0--0--0--x--|2--2--2--2--2--2--    |7-7-7-7-2-2----|
E|--x--x--x--x--x--|0--0--0--0--0--0--    |5-5-4-4-0-0----|

Chorus:

e|--0--0--0--0--x--|0--0--0--0--0--0--    |0-0-0-0-0-0----|
B|--3--3--2--2--x--|2--2--0--0--0--0--    |0-0-0-0-0-0----|
G|--2--2--2--2--x--|2--2--0--0--1--1--    |6-6-6-6-1-1----|
D|--0--0--2--2--x--|2--2--2--2--2--2--    |7-7-7-7-2-2----|
A|--0--0--0--0--x--|2--2--2--2--2--2--    |7-7-7-7-2-2----|
E|--x--x--x--x--x--|0--0--0--0--0--0--    |5-5-4-4-0-0----|

Bridge(just after the chorus)/ END:

e|--0--0--0----0--0--0----|
B|--3--3--2----2--2--0----|
G|--2--2--2----2--2--1----|
D|--0--0--2----2--2--2----|
A|--0--0--0----0--0--2----|
E|--x--x--x----x--x--0----|

Solo (chords stay same throughout solo):

e|---------------------------------------------------------------------------|
B|---------------------------------------------------------------------------|
G|---------------------------------------------------------------------------|
D|----7-------7---4---7-7h9p6---6-6h7------7-------7---4---7-7h9p6---6-6h7---|
A|--5---5-7-----5---------------------7--5---5-7-----5---------------------7-|
E|---------------------------------------------------------------------------|

e|---------------------------------------------------------------------------|
B|---------------------------------------------------------------------------|
G|--7-7-7-9-6--4-------------------------------------------------------------|
D|---------------7--7-7-7h9p6---6-6h7------7-------7---4---7-7h9p6---6-6h7---|
A|------------------------------------7--5---5-7-----5---------------------7-|
E|---------------------------------------------------------------------------|

Hope you find it easy enough. Enjoy!

Tabbed By MFS
Tap to rate this tab
# A B C D E F G H I J K L M N O P Q R S T U V W X Y Z