Song name
# A B C D E F G H I J K L M N O P Q R S T U V W X Y Z

Foo Fighters - Wheels tab

foo fighters-wheels

This one is my the first tab that I do.....=)


intro (distortion)
e----------------------|----------------------|
b----------------------|----------------------|
g------3----3-5/7-7-7--|----------------------|
d-3--5---5-------------|--8-8--7-7--9-7-------|
a----------------------|----------------8-7-5-|
E----------------------|----------------------|

verse (clean)
e----------------------|----------------------|
b----------------------|----------------------|
g------3----3-5/7-7-7--|----------------------|
d-3--5---5-------------|--8-8--7-7--9-7-------|
a----------------------|----------------8-7-5-|
E----------------------|----------------------|

pre chorus (clean)
e---|---|---|---|
b---|---|---|---|
g-8-|-3-|---|---|
d-8-|-3-|-5-|-3-|
a-6-|-1-|-5-|-3-|
E---|---|-5-|-3-|

chorus (distortion)
e---|---|---|---|
b---|---|---|---|
g-8-|---|---|---|
d-8-|-8-|-5-|-3-|
a-6-|-8-|-5-|-3-|
E---|-8-|-5-|-3-|

post chorus (distortion)
e-----------------|
b-----------------|
g-8-8-3-----------|
d-8-8-3-----5-5-3-|
a-6-6-1-----5-5-3-|
E-----------5-5-3-|

solo
e|---------------------------------------------------------------------------|
B|---------------------------------------------------------------------------|
G|---------------------------------------------------------------------------|
D|----7-------7---4---7-7h9p6---6-6h7------7-------7---4---7-7h9p6---6-6h7---|
A|--5---5-7-----5---------------------7--5---5-7-----5---------------------7-|
E|---------------------------------------------------------------------------|

e|---------------------------------------------------------------------------|
B|---------------------------------------------------------------------------|
G|--7-7-7-9-6--4-------------------------------------------------------------|
D|---------------7--7-7-7h9p6---6-6h7------7-------7---4---7-7h9p6---6-6h7---|
A|------------------------------------7--5---5-7-----5---------------------7-|
E|---------------------------------------------------------------------------|

enjoy

Tap to rate this tab
# A B C D E F G H I J K L M N O P Q R S T U V W X Y Z