Song name
# A B C D E F G H I J K L M N O P Q R S T U V W X Y Z

Foo Fighters - Wheels tab

Foo Fighters - Wheels
Album: Greatest Hits
Instrument: Guitar
Tuning: eBGDAE


Intro/Verse/Chorus
Guitar I (Dave):

e||--0-0-------------|
B||--3-3-2-2---------|
G||--2-2-2-2---------| (Listen to the song for timing)
D||--0-0-2-2-4-4-2-2-|
A||--0-0-----4-4-2-2-|
E||----------2-2-0-0-|

Guitar II (Chris):

e||---------------------------------------|
B||---------------------------------------|
G||-------2------6-6-6--2-2-2-1-1-2-1-----|
D||--2--4---4--2----------------------4-2-|
A||---------------------------------------|
E||---------------------------------------|

(Verse is clean, intro & Chorus is distortion)

This is pretty much the whole song, except for the solo, wich I can't seem to figure it out.
Tap to rate this tab
# A B C D E F G H I J K L M N O P Q R S T U V W X Y Z