Song name
# A B C D E F G H I J K L M N O P Q R S T U V W X Y Z

Foo Fighters - Wheels tab

This is a pretty nice song by the Foos.
I'm pretty sure the solo is 100% correct.
Whoever has anything that they want to 
add or correct feel free to comment >.>

Intro:
|---------------------------------------------|
|---------------------------------------------|
|--------------6-6-6-6------------------------|
|--------7-----7-7-7-7-4-4-7--7-6-6-6-7-6-4---|
|-5--7\9---9-7-4-4-4-4----------------------7-|
|---------------------------------------------| x2

Verse: (clean)
|----------------------------------------------|
|----------------------------------------------|
|--------------6-6-6-6-------------------------|
|--------7-----7-7-7-7-4-4-7--7-6-6-6-7-6-4----|
|-5--7\9---9-7-4-4-4-4----------------------7--|
|---------------------------------------------0| x3

|--------------------------------------------|
|--------------------------------------------|
|--------------6-6-6-6-----------------------|
|--------7-----7-7-7-7-4-4-7--7-6-6-6-7-6----|
|-5--7\9---9-7-4-4-4-4--------------------7--|
|--------------------------------------------|

|----------------------------------------------|
|----------------------------------------------|
|--------------6-6-6-6-------------------------|
|--------7-----7-7-7-7-4-4-7--7-6-6-6-7-6-4----|
|-5--7\9---9-7-4-4-4-4----------------------7--|
|---------------------------------------------0| x3

|--------------------------------------------|
|--------------------------------------------|
|--------------6-6-6-6-----------------------|
|--------7-----7-7-7-7-4-4-7--7-6-6-6-7-6----|
|-5--7\9---9-7-4-4-4-4--------------------7--|
|--------------------------------------------|

Chorus: (listen to the song to find the rhythm)
|-0------0------0------0------|
|-3------2------0------0------|
|-2------2------2------1------|
|-0------2------4------2------|
|-0------0------4------2------|
|----------------------0------| x7

Post-Chorus:
|-0-0--0-----0-0--0-----|
|-3-3--2-----0-0--0-----|
|-2-2--2-----2-2--1-----|
|-0-0--2-----4-4--2-----|
|-0-0--0-----4-4--2-----|
|-----------------0-----|

Verse:
|----------------------------------------------|
|----------------------------------------------|
|--------------6-6-6-6-------------------------|
|--------7-----7-7-7-7-4-4-7--7-6-6-6-7-6-4----|
|-5--7\9---9-7-4-4-4-4----------------------7--|
|---------------------------------------------0| x3

|--------------------------------------------|
|--------------------------------------------|
|--------------6-6-6-6-----------------------|
|--------7-----7-7-7-7-4-4-7--7-6-6-6-7-6----|
|-5--7\9---9-7-4-4-4-4--------------------7--|
|--------------------------------------------|

Chorus:
|-0------0------0------0------|
|-3------2------0------0------|
|-2------2------2------1------|
|-0------2------4------2------|
|-0------0------4------2------|
|----------------------0------| x7

Post-Chorus:
|-0-0--0-----0-0--0-----|
|-3-3--2-----0-0--0-----|
|-2-2--2-----2-2--1-----|
|-0-0--2-----4-4--2-----|
|-0-0--0-----4-4--2-----|
|-----------------0-----|

Solo:
|------------------------------------|
|------------------------------------|
|------------------------------------|
|---7------7------7-7h9p6--6-7-6-----|
|-5---5-7----7-9-----------------9-7-|
|------------------------------------| x2

|------------------------------------------------------|
|------------------------------------------------------|
|------------------------------------------------------|
|-\12-12-12-12h14p11-----------------------------------|
|---------------------14-12--12-12h14p11--11-12-11-9-7-|
|------------------------------------------------------|

|------------------------------------|
|------------------------------------|
|------------------------------------|
|---7------7------7-7h9p6--6-7-6-----|
|-5---5-7----7-9-----------------9-7-|
|------------------------------------|

Chorus: (solo plays in the background)
|-0------0------0------0------|
|-3------2------0------0------|
|-2------2------2------1------|
|-0------2------4------2------|
|-0------0------4------2------|
|----------------------0------| x8

Ending:
|-0-0--0-----0-0--0~-----|
|-3-3--2-----0-0--0~-----|
|-2-2--2-----2-2--1~-----|
|-0-0--2-----4-4--2~-----|
|-0-0--0-----4-4--2~-----|
|-----------------0~-----| :D
Tap to rate this tab
 
# A B C D E F G H I J K L M N O P Q R S T U V W X Y Z