Song name
# A B C D E F G H I J K L M N O P Q R S T U V W X Y Z

Foo Fighters - Wheels tab

-------------------------------------------------------------------------------
			     WHEELS - Foo Fighters
-------------------------------------------------------------------------------


Tabbed by: greenwoodfan93

Shifflet: Tuning:Standard (Capo on 2!!) and the tab is relative to capo

Note: For the intro and verse Shifflet seems to strum rather the pick to get that 
jangly sound, so mess around a bit strumming and muting the unplayed notes to get that sound.

Intro (Overdriven): 
f#|--------------------------------------------------------------------------|
C#|--------------------------------------------------------------------------| 
A-|--------0------444----00-0------------------------------------------------| 
E-|----0h2---2p0--555-5*------4-4/5\4-2-0------------------------------------| 
B-|--3------------222--------------------0-----------------------------------| 
F#|--------------------------------------------------------------------------| 

f#|--------------------------------------------------------------------------| 
C#|--------------------------------------------------------------------------| 
A-|--------0------444----00-0------------------------------------------------| 
E-|----0h2---2p0--555-5*------4-4/5\4-2-0------------------------------------| 
B-|--3------------222--------------------0-----------------------------------| 
F#|--------------------------------------------------------------------------| 
* - harmonic 

Note: With the verse you don't need to play all the repeated A's, just throw them 
in whenever you want 

Verse (Clean): 
f#|--------------------------------------------------------------------------| 
C#|--------------------------------------------------------------------------| 
A-|-0-0---0-0---000-0-0-0---0-0-0-0-0-0-0------------------------------------| 
E-|-5-0h2-5-2p0-555-2-2-5---5-x-x-4-5-2-0------------------------------------| 
B-|-3-----------222-----------5-5--------0-----------------------------------| 
F#|--------------------------------------------------------------------------| 

Play several times, then for the last time - 

End Verse (Clean): 
f#|--------------------------------------------------------------------------| 
C#|--------------------------------------------------------------------------| 
A-|-0-0---0-0---444--0-0-0---0-0-0-0-0---------------------------------------| 
E-|-5-0h2-5-2p0-555--2-2-5---5-x-x-4-5--0~-----------------------------------| 
B-|-3-----------222------------5-5-------------------------------------------| 
F#|--------------------------------------------------------------------------| 

Pre Chorus (Overdriven): 

f#|------x-xxx-----x-xxx-----x-xxx------00-----------------------------------| 
C#|------x-xxx-----x-xxx-----x-xxx-3-3--33-----------------------------------| 
A-|-5-5--x-xxx-----x-xxx-----x-xxx-2-2--22-----------------------------------| 
E-|-5-5--x-xxx-5-5-x-xxx-2-2-x-xxx-0-0---------------------------------------| 
B-|-3-3--x-xxx-5-5-x-xxx-2-2-x-xxx-0-0---------------------------------------| 
F#|------x-xxx-3-3-x-xxx-0-0-x-xxx-------------------------------------------| 

f#|------x-xxx-----x-xxx-----x-xxx------00-----------------------------------| 
C#|------x-xxx-----x-xxx-----x-xxx-3-3--33-----------------------------------| 
A-|-5-5--x-xxx-----x-xxx-----x-xxx-2-2--22-----------------------------------| 
E-|-5-5--x-xxx-5-5-x-xxx-2-2-x-xxx-0-0---------------------------------------| 
B-|-3-3--x-xxx-5-5-x-xxx-2-2-x-xxx-0-0---------------------------------------| 
F#|------x-xxx-3-3-x-xxx-0-0-x-xxx-------------------------------------------| 

Chorus (Distorted): 

f#|--------------------------------------------------------------------------| 
C#|--------------------------------------------------------------------------|
A-|-5-5--------------------------7-7-7-7-------------------------------------| 
E-|-5-5----------5~-----2-2-2-2--7-7-7-7-------------------------------------| 
B-|-3-3------5h7---(5)--2-2-2-2--5-5-5-5-------------------------------------| 
F#|---------------------0-0-0-0----------------------------------------------| 
(5)-Ghost Note 

f#|--------------------------------------------------------------------------| 
C#|--------------------------------------------------------------------------| 
A-|-5-5---------------------------7-7-7-7------------------------------------| 
E-|-5-5----------5~------2-2-2-2--7-7-7-7------------------------------------| 
B-|-3-3------5h7---(5)---2-2-2-2--5-5-5-5------------------------------------| 
F#|----------------------0-0-0-0---------------------------------------------| 

f#|--------------------------------------------------------------------------| 
C#|--------------------------------------------------------------------------|
A-|-5-5-5-5--------------------7-7-7-7---------------------------------------| 
E-|-5-5-5-5--5-5-5-5--2-2-2-2--7-7-7-7---------------------------------------| 
B-|-3-3-3-3--5-5-5-5--2-2-2-2--5-5-5-5---------------------------------------| 
F#|----------3-3-3-3--0-0-0-0------------------------------------------------| 

f#|--------------------------------------------------------------------------| 
C#|--------------------------------------------------------------------------| 
A-|-5-5---------------------------7-7-7-7------------------------------------| 
E-|-5-5----------5~------2-2-2-2--7-7-7-7------------------------------------| 
B-|-3-3------5h7---(5)---2-2-2-2--5-5-5-5------------------------------------| 
F#|----------------------0-0-0-0---------------------------------------------| 
Post Chorus (Distorted): 

f#|--------------------------------------------------------------------------| 
C#|--------------------------------------------------------------------------| 
A-|-5-5---------------------7~-----------------------------------------------| 
E-|-5-5---5~-------2-2------7~-----------------------------------------------| 
B-|-3-3---5~-------2-2------5~-----------------------------------------------| 
F#|-------3~-------0-0-------------------------------------------------------|

Then repeat verse (its a bit shorter the second time). 
Then play the pre chorus again but for the last time round play:

Pre Chorus 2 (Overdriven): 
f#|------xxxx-----xxxx-------------------------------------------------------| 
C#|------xxxx-----xxxx-----------3333----------------------------------------| 
A-|-5-5--xxxx-----xxxx-----------2222----------------------------------------| 
E-|-5-5--xxxx-5-5-xxxx------2222-0000----------------------------------------| 
B-|-3-3--xxxx-5-5-xxxx------2222-0000----------------------------------------| 
F#|------xxxx-3-3-xxxx--(d)-0000---------------------------------------------| 

(d)- Turn distortion on here 

Repeat Chorus and then post chorus x2 

Solo (Distorted): 

f#|--------------------------------------------------------------------------| 
C#|--------------------------------------------------------------------------| 
A-|--------------------------------------------------------------------------| 
E-|-----------------------------10*------------------------------------------| 
B-|-10\\5-----10------10-----7-10-10h12-9-9-10p9-7\5-------------------------| 
F#|---------8----8-10------8-------------------------------------------------| 

f#|--------------------------------------------------------------------------| 
C#|--------------------------------------------------------------------------| 
A-|--------------------------------------------------------------------------|
E-|-----------------------------10*------------------------------------------| 
B-|-10\\5-----10------10-----7-10-10h12-9-9-10p9-7\5-------------------------| 
F#|---------8----8-10------8-------------------------------------------------| 

f#|--------------------------------------------------------------------------| 
C#|--------------------------------------------------------------------------| 
A-|--------------------------------------------------------------------------| 
E-|-//-10-10-10h12-9-7--10*--------------------------------------------------| 
B-|--------------------10-10-10-10h12-9-9-10p9-7\5---------------------------| 
F#|--------------------------------------------------------------------------| 

f#|--------------------------------------------------------------------------| 
C#|--------------------------------------------------------------------------| 
A-|--------------------------------------------------------------------------| 
E-|-----------------------------10*------------------------------------------| 
B-|-10\\5-----10------10-----7-10-10h12-9-9-10p9-7\\\------------------------| 
F#|---------8----8-10------8-------------------------------------------------|

Then play chorus again.
Then repeat the solo. 
End on post chorus. 


Now Grohl's part: Standard Tuning - No Capo!!! 

Intro, Verse, and Pre Chorus (played the same, but verse is clean):

e|-0-0---x-x-x-x-0-0---x-x-x-x-2-2---x-x-x-x-----0-0-------------------------| 
B|-3-3---x-x-x-x-2-2---x-x-x-x-2-2---x-x-x-x-----0-0-------------------------| 
G|-2-2---x-x-x-x-2-2---x-x-x-x-2-2---x-x-x-x-----0-0-------------------------| 
D|-0-0---x-x-x-x-2-2---x-x-x-x-4-4---x-x-x-x-2-2-2-2-------------------------| 
A|---------------0-0-----------4-4-----------2-2-----------------------------| 
E|-----------------------------2-2-----------0-0-----------------------------| 
Repeat as necessary 

Chorus: 
e|-0--0--0-0-0-0--x-xxx-2-2-x-xxx-----0-0------------------------------------| 
B|-3--3--3-2-2-2--x-xxx-2-2-x-xxx-----0-0------------------------------------| 
G|-2--2--2-2-2-2--x-xxx-2-2-x-xxx-----0-0------------------------------------| 
D|-0--0--0-2-2-2--x-xxx-4-4-x-xxx-2-2-2-2------------------------------------| 
A|---------0-0-0----xxx-4-4-x-xxx-2-2----------------------------------------| 
E|----------------------2-2-x-xxx-0-0----------------------------------------| 

Post Chorus: 

e|-0--0---0~------2-2---0~---------------------------------------------------| 
B|-3--3---2~------2-2---0~---------------------------------------------------| 
G|-2--2---2~------2-2---0~---------------------------------------------------| 
D|-0--0---2~------4-4---2~---------------------------------------------------| 
A|--------0~------4-4---2~---------------------------------------------------| 
E|----------------------0~---------------------------------------------------| 

That's all Dave's parts, just play them where you need to, and in Shifflet's solo play the chorus.

Enjoy.
Tap to rate this tab
# A B C D E F G H I J K L M N O P Q R S T U V W X Y Z