Song name
# A B C D E F G H I J K L M N O P Q R S T U V W X Y Z

Foo Fighters - Learn To Fly tab

Song: Learn to Fly
Artist: Foo Fighters
Album: The Colour and the Shape
Standard Tuning
Moderately Fast
136 b.p.m.

tabbed by ben3296(bptrules@hotmail.com)

Tablature Key
-------------
h - hammer on
p - pull off
b - bend
pb - prebend
r - release
/\ - slide
PM - palm mute
LR - let ring






Guitar 1 Intro
--------------
    1                2                3                4
e-| |----------------|----------------|----------------|----------------|
B-| |----------------|----------------|----------------|----------------|
G-|4|----------------|4---4-4---4-4-4-|4/6-6-6---6b7-6-|6\4-4-4---4-4-4-|
D-|4|----------------|x---x-x---x-x-x-|x---x-x---x---x-|x---x-x---x-x-x-|
A-| |----------------|2---2-2---2-2-2-|2/4-4-4---4b5-4-|4\2-2-2---2-2-2-|
E-| |------------15\-|----------------|----------------|----------------|

  5                6                7                8
e-|----------------|----------------|----------------|----------------|
B-|----------------|----------------|----------------|----------------|
G-|--4-4-4---4-4---|4---4-4---4-4-4-|4/6-6-6---6b7-6-|6\4-4-4---4-----|
D-|--x-x-x---x-x-0-|x---x-x---x-x-x-|x---x-x---x---x-|x---x-x---x-----|
A-|--2-2-2---2-2-0-|2---2-2---2-2-2-|2/4-4-4---4b5-4-|4\2-2-2---2-0---|
E-|----------------|----------------|----------------|----------------|
                                                                LR____
  9
e-|------0---0-0-0-|
B-|------0---0-0-0-|
G-|------4---4-4-4-| end
D-|------2---2-2-2-|intro
A-|----------------|
E-|4---------------|
   LR____


Guitar 2 Intro
--------------
    1                2                3                4
e-| |----------------|0---0-0---0-0-0-|------0---0---0-|------0---0---0-|
B-| |----------------|0---0-0---0-0-0-|------0---0---0-|------0---0---0-|
G-|4|----------------|4---4-4---4-4-4-|----------------|------4---4---4-|
D-|4|----------------|4---4-4---4-4-4-|----2-----------|------2---2---2-|
A-| |----------------|2---2-2---2-2-2-|--4-------------|2---2-------2---|
E-| |----------------|----------------|2-----------2---|0---0-------0---|

  5                6                7                8
e-|--0---0---0-0-0-|0---0-0---0-0-0-|------0---0---0-|------0---0---0-|
B-|--0---0---0-0-0-|0---0-0---0-0-0-|------0---0---0-|------0---0---0-|
G-|--4---4---4-4-4-|4---4-4---4-4-4-|----------------|------4---4---4-|
D-|--2---2---2-2-2-|4---4-4---4-4-4-|----2-----------|------2---2---2-|
A-|----2-----------|2---2-2---2-2-2-|--4-------------|2---2-------2---|
E-|----0-----------|----------------|2-----------2---|0---0-------0---|

  9
e-|--0---0---0-0-0-|
B-|--0---0---0-0-0-|
G-|--4---4---4-4-4-| end
D-|--2---2---2-2-2-|intro
A-|----2-----------|
E-|----0-----------|






Guitar 1 Verse
--------------
  10
e-|----------------|             |
B-|----------------|             |
G-|4---------------|rest measures| end
D-|x---------------|   11 - 25   |verse
A-|2---------------|             |
E-|----------------|             |
   fade out


Guitar 2 Verse
--------------
  10               11               12               13
e-|------2---------|------0---------|------0---------|------0---------|
B-|--2---2---------|--0---0---------|------0---------|------0---------|
G-|----4-----------|--2-------------|------4---------|--4-------------|
D-|----------------|----4-----------|2---------------|----2-----------|
A-|2---------------|----------------|2---------------|----------------|
E-|----------------|2---------------|0---------------|0---------------|
   
  14               15               16               17
e-|------2---------|------0---------|------0---------|------0---------|
B-|--2---2---------|--0---0---------|------0---------|------0---------|
G-|----4-----------|--2-------------|------4---------|--4-------------|
D-|----------------|----4-----------|2---------------|----2-----------|
A-|2---------------|----------------|2---------------|----------------|
E-|----------------|2---------------|0---------------|0---------------|

  18               19               20               21
e-|------2---------|------0---------|------0---------|------0---------|
B-|--2---2---------|--0---0---------|------0---------|------0---------|
G-|----4-----------|--2-------------|------4---------|--4-------------|
D-|----------------|----4-----------|2---------------|----2-----------|
A-|2---------------|----------------|2---------------|----------------|
E-|----------------|2---------------|0---------------|0---------------|

  22               23               24               25
e-|------2---------|------0---------|------0---0---0-|--0---0---0-----|
B-|--2---2---------|--0---0---------|------0---0---0-|--0---0---0-----|
G-|----4-----------|--2-------------|------4---4---4-|--4---4---4-----| end
D-|----------------|----4-----------|------2---2---2-|--2---2---2-----|verse
A-|2---------------|----------------|2-2-2-------2---|----2-------0-0-|
E-|----------------|2---------------|0-0-0-------0---|----0-------0-0-|






Guitars 1 & 2 Chorus
--------------------
  26               27               28               29
e-|------0---0---0-|------0---0---0-|------0---0---0-|--0---0---0-0---|
B-|------0---0---0-|--0---0---0---0-|------0---0---0-|--0---0---0-0---|
G-|4---4-------4---|2---2-------2---|------4---4---4-|--4---4---4-4-2-|
D-|2---2-------4---|4-----------4---|------2---2---2-|--2---2---2-2-2-|
A-|2---2-------2---|4-----------4---|2-2-2-------2---|----2-----------|
E-|----------------|----------------|0-0-0-------0---|----0-----------|

  30               31               32               33
e-|------0---0---0-|------0---0---0-|------0---0---0-|--0---0---0-0---|
B-|------0---0---0-|--0---0---0---0-|------0---0---0-|--0---0---0-0---|
G-|4---4-------4---|2---2-------2---|------4---4---4-|--4---4---4-4-2-|
D-|2---2-------4---|4-----------4---|------2---2---2-|--2---2---2-2-2-|
A-|2---2-------2---|4-----------4---|2-2-2-------2---|----2-----------|
E-|----------------|----------------|0-0-0-------0---|----0-----------|

  34               35               36               37
e-|------0---0---0-|------0---0---0-|------0---0---0-|--0---0---------|
B-|------0---0---0-|--0---0---0---0-|------0---0---0-|--0---0---------|
G-|4---4-------4---|2---2-------2---|------4---4---4-|--4---4-------0-|
D-|2---2-------4---|4-----------4---|------2---2---2-|--2---2---2-4---|
A-|2---2-------2---|4-----------4---|2-2-2-------2---|----2-----------|
E-|----------------|----------------|0-0-0-------0---|----0-----------|

  38               39
e-|3---3-3---3-3-3-|----------------|
B-|3---3-3---3-3-3-|3-----2---2-2---|
G-|0---0-0---0-0-0-|2-----2---2-2---| end
D-|0---0-0---0-0-0-|2-----2---2-2-2-|chorus
A-|2---2-2---2-2-2-|0-----0---0-0-0-|
E-|----------------|----------------|






Guitar 1 Bridge
---------------
  40               41               42               43
e-|----------------|----------------|----------------|----------------|
B-|----------------|----------------|----------------|----------------|
G-|4---4-4---4-4-4-|4/6-6-6---6b7-6-|6\4-4-4---4-4-4-|--4-4-4---4-4---|
D-|x---x-x---x-x-x-|x---x-x---x---x-|x---x-x---x-x-x-|--x-x-x---x-x-0-|
A-|2---2-2---2-2-2-|2/4-4-4---4b5-4-|4\2-2-2---2-2-2-|--2-2-2---2-2-0-|
E-|----------------|----------------|----------------|----------------|

  44               45               46               47
e-|----------------|----------------|----------------|------0---0-0-0-|
B-|----------------|----------------|----------------|------0---0-0-0-|
G-|4---4-4---4-4-4-|4/6-6-6---6b7-6-|6\4-4-4---4-----|------4---4-4-4-|end
D-|x---x-x---x-x-x-|x---x-x---x---x-|x---x-x---x-----|------2---2-2-2-|bri-
A-|2---2-2---2-2-2-|2/4-4-4---4b5-4-|4\2-2-2---2-0---|----------------|dge 
E-|----------------|----------------|----------------|4---------------|
                                               LR___________
 
Guitar 2 Bridge
---------------
  40               41               42               43
e-|0---0-0---0-0-0-|------0---0---0-|------0---0---0-|--0---0---0-0-0-|
B-|0---0-0---0-0-0-|------0---0---0-|------0---0---0-|--0---0---0-0-0-|
G-|4---4-4---4-4-4-|----------------|------4---4---4-|--4---4---4-4-4-|
D-|4---4-4---4-4-4-|----2-----------|------2---2---2-|--2---2---2-2-2-|
A-|2---2-2---2-2-2-|--4-------------|2---2-------2---|----2-----------|
E-|----------------|2-----------2---|0---0-------0---|----0-----------|

  44               45               46               47
e-|0---0-0---0-0-0-|------0---0---0-|------0---0---0-|--0---0---0-0-0-|
B-|0---0-0---0-0-0-|------0---0---0-|------0---0---0-|--0---0---0-0-0-|
G-|4---4-4---4-4-4-|----------------|------4---4---4-|--4---4---4-4-4-|end
D-|4---4-4---4-4-4-|----2-----------|------2---2---2-|--2---2---2-2-2-|bri-
A-|2---2-2---2-2-2-|--4-------------|2---2-------2---|----2-----------|dge
E-|----------------|2-----------2---|0---0-------0---|----0-----------|






Guitar 1 Verse
--------------
  48
e-|----------------|             |
B-|----------------|             |
G-|4---------------|rest measures| end
D-|x---------------|   49 - 63   |verse
A-|2---------------|             |
E-|----------------|             |
   fade out


Guitar 2 Verse
--------------
  48               49               50               51
e-|------2---------|------0---------|------0---------|------0---------|
B-|--2---2---------|--0---0---------|------0---------|------0---------|
G-|----4-----------|--2-------------|------4---------|--4-------------|
D-|----------------|----4-----------|2---------------|----2-----------|
A-|2---------------|----------------|2---------------|----------------|
E-|----------------|2---------------|0---------------|0---------------|
   
  52               53               54               55
e-|------2---------|------0---------|------0---------|------0---------|
B-|--2---2---------|--0---0---------|------0---------|------0---------|
G-|----4-----------|--2-------------|------4---------|--4-------------|
D-|----------------|----4-----------|2---------------|----2-----------|
A-|2---------------|----------------|2---------------|----------------|
E-|----------------|2---------------|0---------------|0---------------|

  56               57               58               59
e-|------2---------|------0---------|------0---------|------0---------|
B-|--2---2---------|--0---0---------|------0---------|------0---------|
G-|----4-----------|--2-------------|------4---------|--4-------------|
D-|----------------|----4-----------|2---------------|----2-----------|
A-|2---------------|----------------|2---------------|----------------|
E-|----------------|2---------------|0---------------|0---------------|

  60               61               62               63
e-|------2---------|------0---------|------0---0---0-|--0---0---0-----|
B-|--2---2---------|--0---0---------|------0---0---0-|--0---0---0-----|
G-|----4-----------|--2-------------|------4---4---4-|--4---4---4-----| end
D-|----------------|----4-----------|------2---2---2-|--2---2---2-----|verse
A-|2---------------|----------------|2-2-2-------2---|----2-------0-0-|
E-|----------------|2---------------|0-0-0-------0---|----0-------0-0-|






Guitars 1 & 2 Chorus
--------------------
  64               65               66               67
e-|------0---0---0-|------0---0---0-|------0---0---0-|--0---0---0-0---|
B-|------0---0---0-|--0---0---0---0-|------0---0---0-|--0---0---0-0---|
G-|4---4-------4---|2---2-------2---|------4---4---4-|--4---4---4-4-2-|
D-|2---2-------4---|4-----------4---|------2---2---2-|--2---2---2-2-2-|
A-|2---2-------2---|4-----------4---|2-2-2-------2---|----2-----------|
E-|----------------|----------------|0-0-0-------0---|----0-----------|

  68               69               70               71
e-|------0---0---0-|------0---0---0-|------0---0---0-|--0---0---0-0---|
B-|------0---0---0-|--0---0---0---0-|------0---0---0-|--0---0---0-0---|
G-|4---4-------4---|2---2-------2---|------4---4---4-|--4---4---4-4-2-|
D-|2---2-------4---|4-----------4---|------2---2---2-|--2---2---2-2-2-|
A-|2---2-------2---|4-----------4---|2-2-2-------2---|----2-----------|
E-|----------------|----------------|0-0-0-------0---|----0-----------|

  72               73               74               75
e-|------0---0---0-|------0---0---0-|------0---0---0-|--0---0---------|
B-|------0---0---0-|--0---0---0---0-|------0---0---0-|--0---0---------|
G-|4---4-------4---|2---2-------2---|------4---4---4-|--4---4-------0-|
D-|2---2-------4---|4-----------4---|------2---2---2-|--2---2---2-4---|
A-|2---2-------2---|4-----------4---|2-2-2-------2---|----2-----------|
E-|----------------|----------------|0-0-0-------0---|----0-----------|

  76               77               78               79
e-|3---3-3---3-3-3-|----------------|0-0---0---------|3---3-3---3-3-3-|
B-|3---3-3---3-3-3-|3-----2---2-2---|0-0---0---------|3---3-3---3-3-3-|
G-|0---0-0---0-0-0-|2-----2---2-2---|4-4---4-------0-|0---0-0---0-0-0-|
D-|0---0-0---0-0-0-|2-----2---2-2-2-|2-2---2---2-4---|0---0-0---0-0-0-|
A-|2---2-2---2-2-2-|0-----0---0-0-0-|----2-----------|2---2-2---2-2-2-|
E-|----------------|----------------|----0-----------|----------------|

  80
e-|----------------|
B-|3---3-2-2-2-2---|
G-|2---2-2-2-2-2---| end
D-|2---2-2-2-2-2---|chorus
A-|0---0-0-0-0-0---|
E-|----------------|







Guitars 1 Interlude
-------------------
  81               82               83               84
e-|----------------|------4-----5-4-|4---2-2---------|2---2-02--0-2-0-|
B-|----------------|--5---5---------|----------------|----------------|
G-|4---4-------4--/|6---6-----------|----------------|----------------|
D-|2---2-------4---|----------------|----------------|----------------|
A-|2---2-------2---|----------------|----------------|----------------|
E-|----------------|----------------|----------------|----------------|

  85               86               87               88
e-|3---------------|----------------|----------------|------4-----5-4-|
B-|3---------------|3----2----------|----------------|--5---5---------|
G-|0---------------|2----2----------|4---4-------4--/|6---6-----------|
D-|0---------------|2----2----------|2---2-------4---|----------------|
A-|2---------------|0----0----------|2---2-------2---|----------------|
E-|3---------------|----------------|----------------|----------------|

  89               90               91               92
e-|4---2-2---------|2---2-02--0-2-0-|3---------------|----------------|
B-|----------------|----------------|3---------------|3-----2---------|
G-|----------------|----------------|0---------------|2-----2---------|end
D-|----------------|----------------|0---------------|2-----2---------|inter
A-|----------------|----------------|2---------------|0-----0---------|lude
E-|----------------|----------------|3---------------|----------------|


Guitar 2 Bridge
---------------
  81               82               83               84
e-|0---0-0---0-0-0-|------0---0---0-|------0---0---0-|--0---0---0-0-0-|
B-|0---0-0---0-0-0-|------0---0---0-|------0---0---0-|--0---0---0-0-0-|
G-|4---4-4---4-4-4-|----------------|------4---4---4-|--4---4---4-4-4-|
D-|4---4-4---4-4-4-|----2-----------|------2---2---2-|--2---2---2-2-2-|
A-|2---2-2---2-2-2-|--4-------------|2---2-------2---|----2-----------|
E-|----------------|2-----------2---|0---0-------0---|----0-----------|

  85               86               87               88
e-|3---3-3-3-3-3-3-|----------------|0---0-0---0-0-0-|------0---0---0-|
B-|3---3-3-3-3-3-3-|3---3-2-2-2-2---|0---0-0---0-0-0-|------0---0---0-|
G-|0---0-0-0-0-0-0-|2---2-2-2-2-2---|4---4-4---4-4-4-|----------------|
D-|0---0-0-0-0-0-0-|2---2-2-2-2-2---|4---4-4---4-4-4-|----2-----------|
A-|2---2-2-2-2-2-2-|0---0-0-0-0-0---|2---2-2---2-2-2-|--4-------------|
E-|3---3-3-3-3-3-3-|----------------|----------------|2-----------2---|

  89               90               91               92
e-|------0---0---0-|--0---0---0-0-0-|3---3-3-3-3-3-3-|----------------|
B-|------0---0---0-|--0---0---0-0-0-|3---3-3-3-3-3-3-|3---3-2-2-2-2---|
G-|------4---4---4-|--4---4---4-4-4-|0---0-0-0-0-0-0-|2---2-2-2-2-2---|end
D-|------2---2---2-|--2---2---2-2-2-|0---0-0-0-0-0-0-|2---2-2-2-2-2---|inter
A-|2---2-------2---|----2-----------|2---2-2-2-2-2-2-|0---0-0-0-0-0---|lude
E-|0---0-------0---|----0-----------|3---3-3-3-3-3-3-|3---3-3-3-3-3---|






Guitars 1 & 2 Chorus
--------------------
  93               94               95               96
e-|------0---0---0-|------0---0---0-|------0---0---0-|--0---0---0-0---|
B-|------0---0---0-|--0---0---0---0-|------0---0---0-|--0---0---0-0---|
G-|4---4-------4---|2---2-------2---|------4---4---4-|--4---4---4-4-2-|
D-|2---2-------4---|4-----------4---|------2---2---2-|--2---2---2-2-2-|
A-|2---2-------2---|4-----------4---|2-2-2-------2---|----2-----------|
E-|----------------|----------------|0-0-0-------0---|----0-----------|

  97               98               99               100
e-|------0---0---0-|------0---0---0-|------0---0---0-|--0---0---0-0---|
B-|------0---0---0-|--0---0---0---0-|------0---0---0-|--0---0---0-0---|
G-|4---4-------4---|2---2-------2---|------4---4---4-|--4---4---4-4-2-|
D-|2---2-------4---|4-----------4---|------2---2---2-|--2---2---2-2-2-|
A-|2---2-------2---|4-----------4---|2-2-2-------2---|----2-----------|
E-|----------------|----------------|0-0-0-------0---|----0-----------|

  101              102              103              104
e-|------0---0---0-|------0---0---0-|------0---0---0-|--0---0---------|
B-|------0---0---0-|--0---0---0---0-|------0---0---0-|--0---0---------|
G-|4---4-------4---|2---2-------2---|------4---4---4-|--4---4-------0-|
D-|2---2-------4---|4-----------4---|------2---2---2-|--2---2---2-4---|
A-|2---2-------2---|4-----------4---|2-2-2-------2---|----2-----------|
E-|----------------|----------------|0-0-0-------0---|----0-----------|

  105              106
e-|3---3-3---3-3-3-|----------------|
B-|3---3-3---3-3-3-|3-----2---2-2---|
G-|0---0-0---0-0-0-|2-----2---2-2---| end
D-|0---0-0---0-0-0-|2-----2---2-2-2-|chorus
A-|2---2-2---2-2-2-|0-----0---0-0-0-|
E-|----------------|----------------|






Guitars 1 & 2 Chorus
--------------------
  107              108              109              110
e-|------0---0---0-|------0---0---0-|------0---0---0-|--0---0---0-0---|
B-|------0---0---0-|--0---0---0---0-|------0---0---0-|--0---0---0-0---|
G-|4---4-------4---|2---2-------2---|------4---4---4-|--4---4---4-4-2-|
D-|2---2-------4---|4-----------4---|------2---2---2-|--2---2---2-2-2-|
A-|2---2-------2---|4-----------4---|2-2-2-------2---|----2-----------|
E-|----------------|----------------|0-0-0-------0---|----0-----------|

  111              112              113              114
e-|------0---0---0-|------0---0---0-|------0---0---0-|--0---0---0-0---|
B-|------0---0---0-|--0---0---0---0-|------0---0---0-|--0---0---0-0---|
G-|4---4-------4---|2---2-------2---|------4---4---4-|--4---4---4-4-2-|
D-|2---2-------4---|4-----------4---|------2---2---2-|--2---2---2-2-2-|
A-|2---2-------2---|4-----------4---|2-2-2-------2---|----2-----------|
E-|----------------|----------------|0-0-0-------0---|----0-----------|

  115              116              117              118
e-|------0---0---0-|------0---0---0-|------0---0---0-|--0---0---------|
B-|------0---0---0-|--0---0---0---0-|------0---0---0-|--0---0---------|
G-|4---4-------4---|2---2-------2---|------4---4---4-|--4---4-------0-|
D-|2---2-------4---|4-----------4---|------2---2---2-|--2---2---2-4---|
A-|2---2-------2---|4-----------4---|2-2-2-------2---|----2-----------|
E-|----------------|----------------|0-0-0-------0---|----0-----------|

  119              120              121              122
e-|3---3-3---3-3-3-|----------------|0-0---0---------|3---3-3---3-3-3-|
B-|3---3-3---3-3-3-|3-----2---2-2---|0-0---0---------|3---3-3---3-3-3-|
G-|0---0-0---0-0-0-|2-----2---2-2---|4-4---4-------0-|0---0-0---0-0-0-|
D-|0---0-0---0-0-0-|2-----2---2-2-2-|2-2---2---2-4---|0---0-0---0-0-0-|
A-|2---2-2---2-2-2-|0-----0---0-0-0-|----2-----------|2---2-2---2-2-2-|
E-|----------------|----------------|----0-----------|----------------|

  123              124              125              126
e-|----------------|0-0---0---------|3---3-3---3-3-3-|----------------|
B-|3-----2---2-2---|0-0---0---------|3---3-3---3-3-3-|3---3-2-2-2-2---|
G-|2-----2---2-2---|4-4---4-------0-|0---0-0---0-0-0-|2---2-2-2-2-2---|end
D-|2-----2---2-2-2-|2-2---2---2-4---|0---0-0---0-0-0-|2---2-2-2-2-2---|cho-
A-|0-----0---0-0-0-|----2-----------|2---2-2---2-2-2-|2---2-2-2-2-2---|rus
E-|----------------|----0-----------|----------------|----------------|






Guitar 1 Outro
--------------
  127
e-|----------------|             |
B-|----------------|             |
G-|4---------------|rest measures| end
D-|x---------------|  128 - 131  |outro
A-|2---------------|             |
E-|----------------|             |
   fade out


Guitar 2 Outro
--------------
  127              128              129              130
e-|------2---------|------2---------|------2---------|------2---------|
B-|--2---2---------|--2---2---------|--2---2---------|--2---2---------|
G-|----4-----------|----4-----------|----4-----------|----4-----------|
D-|----------------|----------------|----------------|----------------|
A-|2---------------|2---------------|2---------------|2---------------|
E-|----------------|----------------|----------------|----------------|

  131
e-|----------------|
B-|------4-----2---|
G-|4-----4-----4---| end
D-|4-----2-----4---|outro
A-|2---------------|
E-|----------------|
               hold then fade last chord


posted by ben3296 (bptrules@hotmail.com)
please leave comments and let me know if i've made any mistakes
hope its good and helps you learn the song
thanks           
Tap to rate this tab
 
# A B C D E F G H I J K L M N O P Q R S T U V W X Y Z