Foo Fighters - In Your Honor tab

-----------------------------------------------------------------------------
			     IN YOUR HONOR - Foo Fighters
-----------------------------------------------------------------------------
Tabbed by:Awesome-Austin

Email:Greeninfinity88@aol.com

Intro:
e|--------------------------------------------------------------------------|
B|--------------------------------------------------------------------------|
G|--------------------------------------------------------------------------|
D|-2------------------------------------------------------------------------|
A|-2------------------------------------------------------------------------|
E|-0-This goes on for about a minute----------------------------------------|

e|--------------------------------------------------------------------------|
B|--------------------------------------------------------------------------|
G|-1-----9-----8-----4------------------------------------------------------|
D|-2-8x--9-8x--8-8x--4-8x---------------------------------------------------|
A|-2-----7-----6-----2------------------------------------------------------|
E|-0------------------------------------------------------------------------|

Verse: "Can you hear me?"

e|--------------------------------------------------------------------------|
B|--------------------------------------------------------------------------|
G|-1-----9-----8-----4------------------------------------------------------|
D|-2-8x--9-8x--8-8x--4-8x---------------------------------------------------|
A|-2-----7-----6-----2------------------------------------------------------|
E|-0------------------------------------------------------------------------|

"Hear me screaming?"

e|--------------------------------------------------------------------------|
B|--------------------------------------------------------------------------|
G|-1-----9-----8-----4------------------------------------------------------|
D|-2-8x--9-8x--8-8x--4-8x---------------------------------------------------|
A|-2-----7-----6-----2------------------------------------------------------|
E|-0------------------------------------------------------------------------|

"Breaking in the muted skies!"

e|--------------------------------------------------------------------------|
B|--------------------------------------------------------------------------|
G|-1-----9-----8-----4------------------------------------------------------|
D|-2-8x--9-8x--8-8x--4-8x---------------------------------------------------|
A|-2-----7-----6-----2------------------------------------------------------|
E|-0------------------------------------------------------------------------|

"This thunder heart!"

e|--------------------------------------------------------------------------|
B|--------------------------------------------------------------------------|
G|-1-----9-----8-----4------------------------------------------------------|
D|-2-8x--9-8x--8-8x--4-8x---------------------------------------------------|
A|-2-----7-----6-----2------------------------------------------------------|
E|-0------------------------------------------------------------------------|

"Like bombs beating!"

e|--------------------------------------------------------------------------|
B|--------------------------------------------------------------------------|
G|-1-----9-----8-----4------------------------------------------------------|
D|-2-8x--9-8x--8-8x--4-8x---------------------------------------------------|
A|-2-----7-----6-----2------------------------------------------------------|
E|-0------------------------------------------------------------------------|

"Echoing a thousand miles apart!"

e|--------------------------------------------------------------------------|
B|--------------------------------------------------------------------------|
G|-1-----9-----8-----4------------------------------------------------------|
D|-2-8x--9-8x--8-8x--4-8x---------------------------------------------------|
A|-2-----7-----6-----2------------------------------------------------------|
E|-0------------------------------------------------------------------------|

Chorus: "Mine is yours and yours is mine!" 

e|--------------------------------------------------------------------------|
B|--------------------------------------------------------------------------|
G|-9-9-9-9-9-9-9-9-9-9-9-9-9-9-9-9-9-9-9-9-9-9-9-9-9-9-9--------------------|
D|-9-9-9-9-9-9-9-9-9-9-9-9-9-9-9-9-9-9-9-9-9-9-9-9-9-9-9--------------------|
A|-7-7-7-7-7-7-7-7-7-7-7-7-7-7-7-7-7-7-7-7-7-7-7-7-7-7-7--------------------|
E|--------------------------------------------------------------------------|

"There is no divide!"

e|--------------------------------------------------------------------------|
B|--------------------------------------------------------------------------|
G|-11-11-11-11-11-11-11-11-11-11-11-11-11-11-11-11-11-11--------------------|
D|-11-11-11-11-11-11-11-11-11-11-11-11-11-11-11-11-11-11--------------------|
A|-9--9--9--9--9--9--9--9--9--9--9--9--9--9--9--9--9--9---------------------|
E|--------------------------------------------------------------------------|

"In Your Honor I would die tonight!"

e|--------------------------------------------------------------------------|
B|--------------------------------------------------------------------------|
G|-6-6-6-6-6-6-9-9-9-9-9-9-9-11-11-11-11-11-11-11-11b12-11b12-11b12--11b12--|
D|-6-6-6-6-6-6-9-9-9-9-9-9-9-11-11-11-11-11-11-11-11b12-11b12-11b12--11b12--|
A|-4-4-4-4-4-4-7-7-7-7-7-7-7-9--9--9--9--9--9--9---9b10--9b10--9b10--9b10---|
E|--------------------------------------------------------------------------|

"Mine is yours and yours is mine!" 

e|--------------------------------------------------------------------------|
B|--------------------------------------------------------------------------|
G|-9-9-9-9-9-9-9-9-9-9-9-9-9-9-9-9-9-9-9-9-9-9-9-9-9-9-9--------------------|
D|-9-9-9-9-9-9-9-9-9-9-9-9-9-9-9-9-9-9-9-9-9-9-9-9-9-9-9--------------------|
A|-7-7-7-7-7-7-7-7-7-7-7-7-7-7-7-7-7-7-7-7-7-7-7-7-7-7-7--------------------|
E|--------------------------------------------------------------------------|

"I will Sacrifice!"

e|--------------------------------------------------------------------------|
B|--------------------------------------------------------------------------|
G|-11-11-11-11-11-11-11-11-11-11-11-11-11-11-11-11-11-11--------------------|
D|-11-11-11-11-11-11-11-11-11-11-11-11-11-11-11-11-11-11--------------------|
A|-9--9--9--9--9--9--9--9--9--9--9--9--9--9--9--9--9--9---------------------|
E|--------------------------------------------------------------------------|

"In Your Honor I would die tonight!"             "For you to feel alive!"

e|--------------------------------------------------------------------------|
B|--------------------------------------------------------------------------|
G|-6-6-6-6-6-6-9-9-9-9-9-9-9-11-11-11-11-11-11-11-11b12-11b12-11b12--11b12--|
D|-6-6-6-6-6-6-9-9-9-9-9-9-9-11-11-11-11-11-11-11-11b12-11b12-11b12--11b12--|
A|-4-4-4-4-4-4-7-7-7-7-7-7-7-9--9--9--9--9--9--9---9b10--9b10--9b10--9b10---|
E|--------------------------------------------------------------------------|

Intro Riff:

e|--------------------------------------------------------------------------|
B|--------------------------------------------------------------------------|
G|-1-----9-----8-----4------------------------------------------------------|
D|-2-8x--9-8x--8-8x--4-8x---------------------------------------------------|
A|-2-----7-----6-----2------------------------------------------------------|
E|-0------------------------------------------------------------------------|

Verse 2: "Can you feel me?"                                               
e|--------------------------------------------------------------------------|
B|--------------------------------------------------------------------------|
G|-1-----9-----8-----4------------------------------------------------------|
D|-2-8x--9-8x--8-8x--4-8x---------------------------------------------------|
A|-2-----7-----6-----2------------------------------------------------------|
E|-0------------------------------------------------------------------------|

"Feel me breathing?"

e|--------------------------------------------------------------------------|
B|--------------------------------------------------------------------------|
G|-1-----9-----8-----4------------------------------------------------------|
D|-2-8x--9-8x--8-8x--4-8x---------------------------------------------------|
A|-2-----7-----6-----2------------------------------------------------------|
E|-0------------------------------------------------------------------------|

"One last breath before i close my eyes!"

e|--------------------------------------------------------------------------|
B|--------------------------------------------------------------------------|
G|-1-----9-----8-----4------------------------------------------------------|
D|-2-8x--9-8x--8-8x--4-8x---------------------------------------------------|
A|-2-----7-----6-----2------------------------------------------------------|
E|-0------------------------------------------------------------------------|

"This suffering!"

e|--------------------------------------------------------------------------|
B|--------------------------------------------------------------------------|
G|-1-----9-----8-----4------------------------------------------------------|
D|-2-8x--9-8x--8-8x--4-8x---------------------------------------------------|
A|-2-----7-----6-----2------------------------------------------------------|
E|-0------------------------------------------------------------------------|

"For receiving!"

e|--------------------------------------------------------------------------|
B|--------------------------------------------------------------------------|
G|-1-----9-----8-----4------------------------------------------------------|
D|-2-8x--9-8x--8-8x--4-8x---------------------------------------------------|
A|-2-----7-----6-----2------------------------------------------------------|
E|-0------------------------------------------------------------------------|

"Deliver me into the other side!"

e|--------------------------------------------------------------------------|
B|--------------------------------------------------------------------------|
G|-1-----9-----8-----4------------------------------------------------------|
D|-2-8x--9-8x--8-8x--4-8x---------------------------------------------------|
A|-2-----7-----6-----2------------------------------------------------------|
E|-0------------------------------------------------------------------------|

Chorus 2: "Mine is yours and yours is mine!" 

e|--------------------------------------------------------------------------|
B|--------------------------------------------------------------------------|
G|-9-9-9-9-9-9-9-9-9-9-9-9-9-9-9-9-9-9-9-9-9-9-9-9-9-9-9--------------------|
D|-9-9-9-9-9-9-9-9-9-9-9-9-9-9-9-9-9-9-9-9-9-9-9-9-9-9-9--------------------|
A|-7-7-7-7-7-7-7-7-7-7-7-7-7-7-7-7-7-7-7-7-7-7-7-7-7-7-7--------------------|
E|--------------------------------------------------------------------------|

"There is no divide!"

e|--------------------------------------------------------------------------|
B|--------------------------------------------------------------------------|
G|-11-11-11-11-11-11-11-11-11-11-11-11-11-11-11-11-11-11--------------------|
D|-11-11-11-11-11-11-11-11-11-11-11-11-11-11-11-11-11-11--------------------|
A|-9--9--9--9--9--9--9--9--9--9--9--9--9--9--9--9--9--9---------------------|
E|--------------------------------------------------------------------------|

"In Your Honor I would die tonight!"

e|--------------------------------------------------------------------------|
B|--------------------------------------------------------------------------|
G|-6-6-6-6-6-6-9-9-9-9-9-9-9-11-11-11-11-11-11-11-11b12-11b12-11b12--11b12--|
D|-6-6-6-6-6-6-9-9-9-9-9-9-9-11-11-11-11-11-11-11-11b12-11b12-11b12--11b12--|
A|-4-4-4-4-4-4-7-7-7-7-7-7-7-9--9--9--9--9--9--9---9b10--9b10--9b10--9b10---|
E|--------------------------------------------------------------------------|

"Mine is yours and yours is mine!" 

e|--------------------------------------------------------------------------|
B|--------------------------------------------------------------------------|
G|-9-9-9-9-9-9-9-9-9-9-9-9-9-9-9-9-9-9-9-9-9-9-9-9-9-9-9--------------------|
D|-9-9-9-9-9-9-9-9-9-9-9-9-9-9-9-9-9-9-9-9-9-9-9-9-9-9-9--------------------|
A|-7-7-7-7-7-7-7-7-7-7-7-7-7-7-7-7-7-7-7-7-7-7-7-7-7-7-7--------------------|
E|--------------------------------------------------------------------------|

"I will Sacrifice!"

e|--------------------------------------------------------------------------|
B|--------------------------------------------------------------------------|
G|-11-11-11-11-11-11-11-11-11-11-11-11-11-11-11-11-11-11--------------------|
D|-11-11-11-11-11-11-11-11-11-11-11-11-11-11-11-11-11-11--------------------|
A|-9--9--9--9--9--9--9--9--9--9--9--9--9--9--9--9--9--9---------------------|
E|--------------------------------------------------------------------------|

"In Your Honor I would die tonight!"             "For you to feel alive!"

e|--------------------------------------------------------------------------|
B|--------------------------------------------------------------------------|
G|-6-6-6-6-6-6-9-9-9-9-9-9-9-11-11-11-11-11-11-11-11b12-11b12-11b12--11b12--|
D|-6-6-6-6-6-6-9-9-9-9-9-9-9-11-11-11-11-11-11-11-11b12-11b12-11b12--11b12--|
A|-4-4-4-4-4-4-7-7-7-7-7-7-7-9--9--9--9--9--9--9---9b10--9b10--9b10--9b10---|
E|--------------------------------------------------------------------------|

Bridge: 

e|--------------------------------------------------------------------------|
B|--------------------------------------------------------------------------|
G|-9xx--------8xx-----------------------------------------------------------|
D|-9xx99xx79xx8xx99xx79-----------------------------------------------------|
A|-7xx99xx79xx6xx99xx79-----------------------------------------------------|
E|--xx77xx57xx-xx77xx57-----------------------------------------------------|

Guitar 2:

e|--------------------------------------------------------------------------|
B|--------------------------------------------------------------------------|
G|-9-9-9-9-9-9-9-9-9-9-9-9-9-9-9-9-9-9-9-9-9-9-9-9-9-9-9-9-9-9-9-9----------|
D|-9-9-9-9-9-9-9-9-9-9-9-9-9-9-9-9-9-9-9-9-9-9-9-9-9-9-9-9-9-9-9-9----------|
A|-7-7-7-7-7-7-7-7-7-7-7-7-7-7-7-7-7-7-7-7-7-7-7-7-7-7-7-7-7-7-7-7----------|
E|-0-0-0-0-0-0-0-0-0-0-0-0-0-0-0-0-0-0-0-0-0-0-0-0-0-0-0-0-0-0-0-0----------|

Have fun!

************************************

| /   slide up
| \   slide down
| h   hammer-on
| p   pull-off
| ~   vibrato
| +   harmonic
| x   Mute note
| b   Bend
| pb  Pre-bend
| br  Bend release
| pbr Pre-bend release
| brb Bend release bend

************************************
Tap to rate this tab
 
# A B C D E F G H I J K L M N O P Q R S T U V W X Y Z