Guitaretab - guitar tabs
Song name
# A B C D E F G H I J K L M N O P Q R S T U V W X Y Z

Foo Fighters - My Hero tab

FOO FIGHTERS
Name; My Hero
Album; The colour and the shape (1997)
Tabbed; Krille C (Krillec@hotbrev.com)


I took a look on a couple of the tabs available
but none of them seemed to work out 100% so i 
started rewriting them and meanwhile had a quick
look at the video. Most people trying to make
tabs tangle themselves up in stripped chords
and long tablines instead of just writing out
the standard chord, it's done here and then
you can strip whatever you feel like from it
as you see fit. Notice though that Grohl plays
full chords on the rythm in the video.


DRUM INTRO

BASSLINE: G C#

Pre Entry riff (stripped version of the verse riff)

e|---------------------------------------|--------------
B|------4---5--4----0--0--0--0------X2---|--------------
G|---------------------------------------|--------------
D|---------------------------------------|--------------
A|---------------------------------------|--------------
E|---------------------------------------|--------------

Rythm G) E (1st fret)     C#5 (4th fret)

Lead G) Following riff

e|---0-0-0-0-0-0------0-0-0-0-0-0-0-0---------------------
B|---4-5-5-5-5-5------4-4-7-4-4-4-7-4---------------------
G|--------------------------------------------------------
D|--------------------------------------------------------
A|--------------------------------------------------------
E|--------------------------------------------------------

ENDLINE 

E - B - A - G#
 

CHORUS

     A     RIFF    
e|--------------------------------------------------------
B|--------------------------------------------------------
G|-------8-8-8-8-----9-9-9-9----10-10-10-10---------------
D|--77----------------------------------------------------
A|--77---6-6-6-6-----7-7-7-7----9--9--9--9----------------
E|--55----------------------------------------------------

    A      RIFF
e|--------------------------------------------------------
B|--------------------------------------------------------
G|-------8-8-8-8----9-9-9-9---6-6-6-6---------------------
D|--77----------------------------------------------------
A|--77---6-6-6-6----7-7-7-7---4-4-4-4---------------------
E|--55----------------------------------------------------

    E      RIFF
e|--------------------------------------------------------
B|--------------------------------------------------------
G|--11---8-8-8-8-----9-9-9-9----10-10-10-10---------------
D|--22----------------------------------------------------
A|--22---6-6-6-6-----7-7-7-7----9--9--9--9----------------
E|--00----------------------------------------------------

    E      RIFF
e|--------------------------------------------------------
B|--------------------------------------------------------
G|--11---8-8-8-8----9-9-9-9---6-6-6-6---------------------
D|--22----------------------------------------------------
A|--22---6-6-6-6----7-7-7-7---4-4-4-4---------------------
E|--00----------------------------------------------------


[ Tab from: http://www.guitaretab.com/f/foo-fighters/23666.html ]
Related for My Hero tab
My Hero chords by Foo Fighters