Guitaretab - guitar tabs
Song name
# A B C D E F G H I J K L M N O P Q R S T U V W X Y Z

Foo Fighters - Everlong Acoustic tab

-------------------------------------------------------------------------------
		   Everlong acoustic - Foo Fighters
-------------------------------------------------------------------------------

Tabbed by: Chris Gee
Email: csgee2222@aol.com

Tuning: Drop D low to high (DADGBE)

Intro/Verse (00:00:00
e|-------------------------------------------------------------------------------------|
B|-------------------------------------------------------------------------------------|
G|-------------------------------------------------------------------------------------|
D|------11---11-11---11-----11-----11-11-11--------11---11-11---11-----11---11-11-11---|
A|------9----9--9----9------9------9--9--9--0------9----9--9----9------9----9--9--9--0-|
D|--0-0-0--0-0--0--0-0--0-0-0--0-0-0--0--0--0--9-9-9--9-9--9--9-9--9-9-9--9-9--9--9--0-|

e|-------------------------------------------------------|
B|-------------------------------------------------------|
G|-------------------------------------------------------|
D|------7-------7-------11-------11-------11-------11----|
A|------5-------5-------9--------9--------9--------9-----|
D|--5-5-5-5-5-5-5-5-9-9-9--9-9-9-9--9-9-9-9--9-9-9-9--9--|

Bridge (00:01:20)
e|----------------------------------------------|
B|----------------------------------------------|
G|----------------------------------------------|
D|---------------------------------7-7-7-7-7-7--|
A|-4-4-4-5-5-5-7-7-7-9-9-9-10-10-9-7-7-7-7-7-7--|
D|-0-0-0-0-0-0-0-0-0-0-0-0-0--0--0-7-7-7-7-7-7--|
repeat
[ Tab from: http://www.guitaretab.com/f/foo-fighters/23870.html ]
e|----------------------------------|
B|----------------------------------|
G|----------------------------------|
D|----------------------------------|
A|-4-4-4-5-5-5-7-7-7-9-9-9-10-10-9--|
D|-0-0-0-0-0-0-0-0-0-0-0-0-0--0--0--|

Chorus (00:01:35)
e|------------------------------------------------------|
B|------------------------------------------------------|
G|-4--4-4-4-4-4-------------7-7-7--7-7-7--7-7-7-7-7-7-7-|
D|-4--4-4-4-4-4-5-5-5-5-5-5-7-7-7--7-7-7--7-7-7-7-7-7-7-|
A|-2--2-2-2-2-2-5-5-5-5-5-5-5-5-5--5-5-5--5-5-5-5-5-5-5-|
D|--------------5-5-5-5-5-5-----------------------------|
repeat
e|---------------------------------------------------------------------------|
B|---------------------------------------------------------------------------|
G|-4--4-4-4-4-4-------------7-7-7-7-7-7--2-2-2-2-2-2-------------------------|
D|-4--4-4-4-4-4-5-5-5-5-5-5-7-7-7-7-7-7--2-2-2-2-2-2--5-5-5-5-5-5-5-5-5-5-5-5|
A|-2--2-2-2-2-2-5-5-5-5-5-5-5-5-5-5-5-5--0-0-0-0-0-0--5-5-5-5-5-5-5-5-5-5-5-5|
D|--------------5-5-5-5-5-5---------------------------5-5-5-5-5-5-5-5-5-5-5-5|

Sequence:
verse x7
bridge
chorus
verse x3
bridge
chorus
verse
bridge x2
chorus
outro chord
|----|
|----|
|-11-|
|-9--|
|-0--|

===============================================================================

Notes:  this is THE correct tab.  it's a collaboration of the piece printed in one
of the newer guitar worlds and a tab that I found on fretplay.com.  I gotta give
a shout out to greg, if it wasn't for him showing me this one, I'd still be playing
the song wrong.  the notes on the low D string are hard to pick out some times but
they're there
Related for Everlong Acoustic tab
Everlong Acoustic chords by Foo Fighters