Guitaretab - guitar tabs
Song name
# A B C D E F G H I J K L M N O P Q R S T U V W X Y Z

Foo Fighters - All My Life tab

Foo Fighters - All My Life

Album: 2002 - One By One
Instrument: Guitar
Tuning: eBGDAE


Intro/Pre-Chorus (very light distortion)
[Dave Grohl]
e|---------------------------|-------|
B|---------------------------|-------|
G|---------------------------|-------|
D|---------------------------|--<4>--|
A|--5-5---5--5-5---5--5-5----|--<4>--|
E|--3-3---3--3-3---3--3-3----|-------|
 PM . .   .  . .   .  . .

Pre-Verse
[Both guitars]
e|-----------------------------------------|
B|-----------------------------------------|
G|--3--3--3--3--3--3--3--3--3--3--/-5-5-5--|
D|--x--x--x--x--x--x--x--x--x--x--/-x-x-x--|
A|--x--x--x--x--x--x--x--x--x--x--/-x-x-x--|
E|--3--3--0--3--3--0--3--3--0--3--/-5-5-5--|

e|-----------------------------------------|
B|-----------------------------------------|
G|--3--3--3--3--3--3--3--3--3--3--/-6-6-6--|
D|--x--x--x--x--x--x--x--x--x--x--/-x-x-x--|
A|--x--x--x--x--x--x--x--x--x--x--/-x-x-x--|
E|--3--3--0--3--3--0--3--3--0--3--/-6-6-6--|


Verse
[Chris Shiflett] (triplets ._._.)
e|------------------------------------|
B|------------------------------------|
G|----3-------3---3-----3---/--5-5-5--|
D|--------------------------/--x-x-x--|
A|--------------------------/--x-x-x--|
E|--3---3-3-3---3---3-3-----/--5-5-5--|
PM  .   ._._.   .   . .               |
                                      |
[Dave Grohl w/above]                  |
e|------------------------------------|
B|------------------------------------|
G|--------------------------/--5-5-5--|
D|--------------------------/--x-x-x--|
A|--------------------------/--x-x-x--|
E|--------------------------/--5-5-5--|

[Chris Shiflett] (triplets ._._.)
e|------------------------------------|
B|------------------------------------|
G|----3-------3---3-----3---/--6-6-6--|
D|--------------------------/--x-x-x--|
A|--------------------------/--x-x-x--|
E|--3---3-3-3---3---3-3-----/--6-6-6--|
PM  .   ._._.   .   . .               |
                                      |
[Dave Grohl w/above]                  |
e|------------------------------------|
B|------------------------------------|
G|--------------------------/--6-6-6--|
D|--------------------------/--x-x-x--|
A|--------------------------/--x-x-x--|
E|--------------------------/--6-6-6--|


Chorus         
[Both guitars] (chords only)
e|-----------------0----------1---------6--|
B|---4----3--------1----------1---------6--|
G|---0----0--------0----------x---------x--|
D|---5----5--------2----------3---------8--|
A|---6----5--------3----------3---------8--|
E|----------------------------1---------6--|

        
(after first and second chorus play pre-verse bit again)

"all my life.."

harmonic on third fret dont let ring and make sure you hit the muted strings
to get the clanky sound
e|------------------------------------------------|
B|-----x------------------------------------------|
G|-----x------------------------------------------|
D|-----x------------------------------------------|
A|----[3]-----------------------------------------|
E|------------------------------------------------|

(repeat intro/prechorus) w/ cheesy drum bit :)

"ALL night long.." 
(dave with more distorted intro/pre chorus)
chris w/below(distorted)
e|------------------------------------------------|
B|----3-------------------------------------------|
G|----5-b-(7)-------------------------------------|
D|------------------------------------------------|
A|------------------------------------------------|
E|------------------------------------------------|
[ Tab from: http://www.guitaretab.com/f/foo-fighters/23968.html ]
this chord is strummed through the above bend on another guitar
(live chris goes from the bend to the chord when dave is 
quietly sayin "done done on to the next one" after the first
4 quiet "done.." he goes back to the bend above 
e|------------------------------------------------|
B|----3-------------------------------------------|
G|----0-------------------------------------------|
D|----5-------------------------------------------|
A|----5-------------------------------------------|
E|------------------------------------------------|

then: (bridge/outro dave) both guitars
distorted (medium to heavy)
e|------------------------------------------------| 
B|------------------------------------------------|
G|------------------------------------------------|
D|------------------------------------------------|
A|---5-5---5--5-5---5--5-5------------------------|
E|---3-3---3--3-3---3--3-3------------------------|

"done done on to the next one"  
(w/above) 
e|---------------------------------------------------|
B|--11----11----11----11----11----11-----13----13----|
G|--13b15-13b15-13b15-13b15-13b15-13b15--15b17-15b17-|
D|---------------------------------------------------|
A|---------------------------------------------------|
E|---------------------------------------------------|

e|---------------------------------------------------|
B|--11----11----11----11----11----11-----14----14----|
G|--13b15-13b15-13b15-13b15-13b15-13b15--16b18-16b18-|
D|---------------------------------------------------|
A|---------------------------------------------------|
E|---------------------------------------------------|



* Lyrics *

All my life I've been searching for something
Something never comes, never leads to nothing
Nothing satisfies, but I'm getting close
Closer to the prize at the end of the rope
All night long I dream of the day
When it comes around and it's taken away
Leaves me with the feeling that I feel the most
Feel it come to life when I see your ghost

Calm down, don't you resist
You've such a delicate wrist
And if I give it a twist
Something to hold when I lose my grip
Will I find something in there
To give me just what I need
Another reason to bleed
One by one hidden up my sleeve
One by one hidden up my sleeve

Hey don't let it go to waste
I love it but I hate the taste
Weight keep pinning me down

Hey don't let it go to waste
I love it but I hate the taste
Weight keep pinning me down

Will I find a believer
Another one who believes
Another one to deceive
Over and over down on my knees
If I get any closer
And if you open up wide
And if you let me inside
On and on I got nothing to hide
On and on I got nothing to hide

Hey don't let it go to waste
I love it but I hate the taste
Weight keep pinning me down

Hey don't let it go to waste
I love it but I hate the taste
Weight keep pinning me down

All my life I've been searching for something
Something never comes, never leads to nothing
Nothing satisfies, but I'm getting close
Closer to the prize at the end of the rope
All night long I dream of the day
When it comes around and it's taken away
Leaves me with the feeling that I feel the most
Feel it come to life when I see your ghost

Then I'm done, done, on to the next one
Done, done, and I'm on to the next one
Done, done, and I'm on to the next one
Done, done, and I'm on to the next one
Done, done, and I'm on to the next one
Done, done, and I'm on to the next one
Done, done, and I'm on to the next one
Done, I'm done, and on to the next

Done, done, on to the next one
Done, I'm done, and on to the next one
Done, done, on to the next one
Done, I'm done, and on to the next

Hey don't let it go to waste
I love it but I hate the taste
Weight keep pinning me down

Hey don't let it go to waste
I love it but I hate the taste
Weight keep pinning me down

Done, done, on to the next one
Done, I'm done, and on to the next
Related for All My Life tab
Advertisement will be closed in 10 seconds