Song name
# A B C D E F G H I J K L M N O P Q R S T U V W X Y Z

Foo Fighters - All My Life tab

Intro  
muted
|------------------------------------------------|--x-|
|------------------------------------------------|--5-|
|------------------------------------------------|--5-|
|------------------------------------------------|--x-|
|-5-5---5-5-5--5-5-5--5-5-5--5-5-5--5-5-5--5-5-5-|--x-|
|-3-3---3-3-3--3-3-3--3-3-3--3-3-3--3-3-3--3-3-3-|--5-|

riff a
|-------------------------------------------------------------------------|
|-3-3-3-3-3--3-3-3-3-3--5-5-5--3-3-3-3-3--3-3-3-3-3-3-3--6-6-6------------|
|-3-3-3-3-3--3-3-3-3-3--5-5-5--3-3-3-3-3--3-3-3-3-3-3-3--6-6-6------------|
|-------------------------------------------------------------------------|
|-------------------------------------------------------------------------|
|-3-3-0-3-3--3-3-0-3-3--5-5-5--3-3-0-3-3--3-3-3-0-3-3-3--6-6-6------------|

verse
|--------------------------------------------------------------------------|
|-----3-----3-----3-----3--5-5-5------3-----3------3-----3--6-6-6----------|
|-----3-----3-----3-----3--5-5-5------3-----3------3-----3--6-6-6----------|
|--------------------------------------------------------------------------|
|--------------------------------------------------------------------------|
|-3-3---3-3---3-3---3-3----5-5-5--3-3---3-3----3-3---3-3----6-6-6----------|

bridge(muted)
|--------------------------------|
|--------------------------------|
|--------------------------------|
|--------------------------------|
|-5-5--5-5-5--5-5-5---5-5-5------|
|-3-3--3-3-3--3-3-3---3-3-3------|

chorus
|--------------------3-3-3-3-3-3-3-3--------------------------------------------|
|--------------------3-3-3-3-3-3-3-3--------------------------------------------|
|-6-6-6-6-6-6-6-6-6--0-0-0-0-0-0-0-0--1-1-1-1-1-1-1-1-------------3-3-3-3-3-3---|
|-6-6-6-6-6-6-6-6-6--0-0-0-0-0-0-0-0--2-2-2-2-2-2-2-2---3-3-3-3---3-3-3-3-3-3---|
|-4-4-4-4-4-4-4-4-4--2-2-2-2-2-2-2-2--2-2-2-2-2-2-2-2---3-3-3-3---1-1-1-1-1-1---|
|--------------------3-3-3-3-3-3-3-3--0-0-0-0-0-0-0-0---1-1-1-1-----------------|

riff a
verse
bridge
chorus

interlude(pick hard)
|---------------------------------------------------|
|---------------------------------------------------|
|---------------------------------------------------|
|-5-5-5--5-5-5--5-5-5--5-5-5--5-5-5--5-5-5--5-5-5---|
|-5-5-5--5-5-5--5-5-5--5-5-5--5-5-5--5-5-5--5-5-5---|
|-3-3-3--3-3-3--3-3-3--3-3-3--3-3-3--3-3-3--3-3-3---|

and thats all thank you mother fukers
any comments to metallicoc@hotmail.com
Tap to rate this tab
# A B C D E F G H I J K L M N O P Q R S T U V W X Y Z