Guitaretab - guitar tabs
Song name
# A B C D E F G H I J K L M N O P Q R S T U V W X Y Z

Foo Fighters - My Hero. Corrected. tab

///////////////////////////////////////////////////////////////////////////////////////
This is my small contribution to this tab, mainly a corrected verse, and a more correct sounding Riff. If you have any comments, questions or corrections for this tab email me at : K__urby@msn.com                   William Goodson. Redding Ca.
///////////////////////////////////////////////////////////////////////////////////////


LEAD G) Following Riff
e|---0-0-0-0-0-0------0-0-0-0-0-0-0-0-0----------
B|---4-5-5-5-5-5------4-4-7-4-4-4-7-4-4----------
G|-----------------------------------------------
D|-----------------------------------------------
A|-----------------------------------------------
E|-----------------------------------------------
I donít really think this into for lead is right.. but what ever.
VERSE
e|-----------------------------------------------
B|-----------------------------------------------
G|----9-------x9------9------6--------4------6---
D|----9-3x----x9-1x---9-1x---6-2x-----4-1x---6-1x
A|----7-------x7------7------4--------4------4---
E|-----------------------------------------------
Verse sounds exactly right if you fling and mute right (advanced playing)
CHORUS
     A     RIFF    
e|-----------------------------------------------
B|-----------------------------------------------
G|--------8-8-8-8-----9-9-9-9----11-11-11-11-----
D|--77-------------------------------------------
A|--77----6-6-6-6-----7-7-7-7-----9--9--9--9-----
E|--55-------------------------------------------

    A      RIFF
e|-----------------------------------------------
B|-----------------------------------------------
G|-------8-8-8-8----9-9-9-9---6-6-6-6------------
D|--77-------------------------------------------
A|--77---6-6-6-6----7-7-7-7---4-4-4-4------------
E|--55-------------------------------------------

    E      RIFF
e|-----------------------------------------------
B|-----------------------------------------------
G|--11---8-8-8-8-----9-9-9-9----11-11-11-11------
D|--22-------------------------------------------
A|--22---6-6-6-6-----7-7-7-7-----9--9--9--9------
E|--00-------------------------------------------

    E      RIFF
e|-----------------------------------------------
B|-----------------------------------------------
G|--11---8-8-8-8----9-9-9-9---6-6-6-6------------
D|--22-------------------------------------------
A|--22---6-6-6-6----7-7-7-7---4-4-4-4------------
E|--00-------------------------------------------



[ Tab from: http://www.guitaretab.com/f/foo-fighters/24299.html ]
Related for My Hero. Corrected. tab