Song name
# A B C D E F G H I J K L M N O P Q R S T U V W X Y Z

Foo Fighters - Alone And Easy Target tab

Song: Alone + Easy Target
Artist: Foo Fighters
Album: Foo Fighters

Tabbed by Ben3296(bptrules@hotmail.com)

4/4
Drop D Tuning (EBGDAD)
Moderate Speed - about 130 bpm


Intro
-----
E-|----------------|8-8---8-8-8---8-|8-8---8-8-8---0-|------0---------|------0---------|
B-|----------------|7-7---8-7-7---8-|7-7---8-7-7---0-|0-0---0---0---0-|0-0---0---0-----|
G-|----------------|7-7---7-7-7---7-|7-7---7-7-7-----|3-3-------3---0-|1-1-------1-----|
D-|----------------|0---0---0-0-0---|0-0-0---0-0-0---|4-4-4-----4-4---|2-2-2-----2-2---|
A-|----------------|0---0---0---0---|0---0---0---0---|4---4-------4---|2---2-------2---|
D-|0---------------|0---0---0---0---|0---0---0---0---|----------------|----------------|
   fade in


E-|8-8---8-8-8---8-|8-8---8-8-8---0-|------0---------|------0---------|
B-|7-7---8-7-7---8-|7-7---8-7-7---0-|0-0---0---0---0-|0-0---0---0-----|
G-|7-7---7-7-7---7-|7-7---7-7-7-----|3-3-------3---0-|1-1-------1-----|play 3
D-|0---0---0-0-0---|0-0-0---0-0-0---|4-4-4-----4-4---|2-2-2-----2-2---|times
A-|0---0---0---0---|0---0---0---0---|4---4-------4---|2---2-------2---|
D-|0---0---0---0---|0---0---0---0---|----------------|----------------|




Verse
-----
E-|8-8---8-8-8---8-|8-8---8-8-8---0-|------0---------|------0---------|
B-|7-7---8-7-7---8-|7-7---8-7-7---0-|0-0---0---0---0-|0-0---0---0-----|
G-|7-7---7-7-7---7-|7-7---7-7-7-----|3-3-------3---0-|1-1-------1-----|play 4
D-|0---0---0-0-0---|0-0-0---0-0-0---|4-4-4-----4-4---|2-2-2-----2-2---|times
A-|0---0---0---0---|0---0---0---0---|4---4-------4---|2---2-------2---|
D-|0---0---0---0---|0---0---0---0---|----------------|----------------|




Chorus
------
E-|----------------|----------------|----------------|----------------|
B-|----------------|----------------|----------------|----------------|
G-|----------------|----------------|----------------|5-5-5-5-5-5-5---|play 2
D-|0-0-0-3-5-5-5-3-|0-0-0-3-7-7-7-0-|3---0-3---0-3-0-|5-5-5-5-5-5-5-5/|times
A-|0-0-0-3-5-5-5-3-|0-0-0-3-7-7-7-0-|3---0-3---0-3-0-|3-3-3-3-3-3-3-3/|
D-|0-0-0-3-5-5-5-3-|0-0-0-3-7-7-7-0-|3---0-3---0-3-0-|----------------|




Interlude
---------
E-|8-8---8-8-8---8-|8-8---8-8-8---0-|------0---------|------0---------|
B-|7-7---8-7-7---8-|7-7---8-7-7---0-|0-0---0---0---0-|0-0---0---0-----|
G-|7-7---7-7-7---7-|7-7---7-7-7-----|3-3-------3---0-|1-1-------1-----|play 2
D-|0---0---0-0-0---|0-0-0---0-0-0---|4-4-4-----4-4---|2-2-2-----2-2---|times
A-|0---0---0---0---|0---0---0---0---|4---4-------4---|2---2-------2---|
D-|0---0---0---0---|0---0---0---0---|----------------|----------------|




Verse
-----
E-|8-8---8-8-8---8-|8-8---8-8-8---0-|------0---------|------0---------|
B-|7-7---8-7-7---8-|7-7---8-7-7---0-|0-0---0---0---0-|0-0---0---0-----|
G-|7-7---7-7-7---7-|7-7---7-7-7-----|3-3-------3---0-|1-1-------1-----|play 4
D-|0---0---0-0-0---|0-0-0---0-0-0---|4-4-4-----4-4---|2-2-2-----2-2---|times
A-|0---0---0---0---|0---0---0---0---|4---4-------4---|2---2-------2---|
D-|0---0---0---0---|0---0---0---0---|----------------|----------------|




Chorus
------
E-|----------------|----------------|----------------|----------------|
B-|----------------|----------------|----------------|----------------|
G-|----------------|----------------|----------------|5-5-5-5-5-5-5---|play 4
D-|0-0-0-3-5-5-5-3-|0-0-0-3-7-7-7-0-|3---0-3---0-3-0-|5-5-5-5-5-5-5-5/|times
A-|0-0-0-3-5-5-5-3-|0-0-0-3-7-7-7-0-|3---0-3---0-3-0-|3-3-3-3-3-3-3-3/|
D-|0-0-0-3-5-5-5-3-|0-0-0-3-7-7-7-0-|3---0-3---0-3-0-|----------------|




Bridge
------
E-|----------------|----------------|----------------|----------------|
B-|----------------|----------------|----------------|----------------|
G-|----------------|----------------|----------------|----------------|
D-|5-5-5-5-5-5-5-5-|5-5-5-5-5-------|5-5-5-5-5-5-5-5-|5-5-5-5-5-------|
A-|5-5-7-5-5-5-7-5-|5-5-7-5-5-------|5-5-7-5-5-5-7-5-|5-5-7-5-5-------|
D-|5-5-5-5-5-5-5-5-|5-5-5-5-5-3---0-|5-5-5-5-5-5-5-5-|5-5-5-5-0-3---0-|


E-|----------------|----------------|----------------|----------------|
B-|----------------|----------------|----------------|----------------|
G-|----------------|----------------|----------------|----------------|
D-|5-5-5-5-5-5-5-5-|5-5-5-5-5-------|7-7-7-7-7-7-7-7-|7-7-7-7-7-------|
A-|5-5-7-5-5-5-7-5-|5-5-7-5-5-------|7-7-7-7-7-7-7-7-|7-7-7-7-7-------|
D-|5-5-5-5-5-5-5-5-|5-5-5-5-5-3---0-|7-7-7-5-7-7-7-7-|7-7-7-7-7-10--0-|


E-|----------------|----------------|----------------|----------------|
B-|----------------|----------------|----------------|----------------|
G-|----------------|----------------|----------------|----------------|
D-|7-7-7-7-7-7-7-7-|7-7-7-7-7-------|7-7-7-7-7-7-7-7-|7-7-7-7-7-------|
A-|7-7-7-7-7-7-7-7-|7-7-7-7-7-------|7-7-7-7-7-7-7-7-|7-7-7-7-7-------|
D-|7-7-7-7-7-7-7-7-|7-7-7-7-7-10--0-|7-7-7-5-7-7-7-7-|7-7-7-7-7-10--0-|


E-|----------------|----------------|
B-|----------------|----------------|
G-|----------------|----------------|
D-|7-7-7-7-7-7-7-7-|7-7-7-7-7\------|
A-|7-7-7-7-7-7-7-7-|7-7-7-7-7\------|
D-|7-7-7-7-7-7-7-7-|7-7-7-7-7\------|



Breakdown
---------
E-|8-8---8-8-8---8-|8-8---8-8-8---0-|------0---------|------0---------|
B-|7-7---8-7-7---8-|7-7---8-7-7---0-|0-0---0---0---0-|0-0---0---0-----|
G-|7-7---7-7-7---7-|7-7---7-7-7-----|3-3-------3---0-|1-1-------1-----|play 2
D-|0---0---0-0-0---|0-0-0---0-0-0---|4-4-4-----4-4---|2-2-2-----2-2---|times
A-|0---0---0---0---|0---0---0---0---|4---4-------4---|2---2-------2---|
D-|0---0---0---0---|0---0---0---0---|----------------|----------------|




Chorus
------
E-|----------------|----------------|----------------|----------------|
B-|----------------|----------------|----------------|----------------|
G-|----------------|----------------|----------------|5-5-5-5-5-5-5---|play 4
D-|0-0-0-3-5-5-5-3-|0-0-0-3-7-7-7-0-|3---0-3---0-3-0-|5-5-5-5-5-5-5-5/|times
A-|0-0-0-3-5-5-5-3-|0-0-0-3-7-7-7-0-|3---0-3---0-3-0-|3-3-3-3-3-3-3-3/|
D-|0-0-0-3-5-5-5-3-|0-0-0-3-7-7-7-0-|3---0-3---0-3-0-|----------------|




Bridge/Outro
------------
E-|----------------|----------------|----------------|----------------|
B-|----------------|----------------|----------------|----------------|
G-|----------------|----------------|----------------|----------------|
D-|5-5-5-5-5-5-5-5-|5-5-5-5-5-------|5-5-5-5-5-5-5-5-|5-5-5-5-5-------|
A-|5-5-7-5-5-5-7-5-|5-5-7-5-5-------|5-5-7-5-5-5-7-5-|5-5-7-5-5-------|
D-|5-5-5-5-5-5-5-5-|5-5-5-5-5-3---0-|5-5-5-5-5-5-5-5-|5-5-5-5-0-3---0-|


E-|----------------|----------------|----------------|----------------|
B-|----------------|----------------|----------------|----------------|
G-|----------------|----------------|----------------|----------------|
D-|5-5-5-5-5-5-5-5-|5-5-5-5-5-------|7-7-7-7-7-7-7-7-|7-7-7-7-7-------|
A-|5-5-7-5-5-5-7-5-|5-5-7-5-5-------|7-7-7-7-7-7-7-7-|7-7-7-7-7-------|
D-|5-5-5-5-5-5-5-5-|5-5-5-5-5-3---0-|7-7-7-5-7-7-7-7-|7-7-7-7-7-10--0-|


E-|----------------|----------------|----------------|----------------|
B-|----------------|----------------|----------------|----------------|
G-|----------------|----------------|----------------|----------------|
D-|7-7-7-7-7-7-7-7-|7-7-7-7-7-------|7-7-7-7-7-7-7-7-|7-7-7-7-7-------|
A-|7-7-7-7-7-7-7-7-|7-7-7-7-7-------|7-7-7-7-7-7-7-7-|7-7-7-7-7-------|
D-|7-7-7-7-7-7-7-7-|7-7-7-7-7-10--0-|7-7-7-5-7-7-7-7-|7-7-7-7-7-10--0-|


E-|----------------|----------------|
B-|----------------|----------------|
G-|----------------|----------------|
D-|7-7-7-7-7-7-7-7-|7-7-7-7-7\------|
A-|7-7-7-7-7-7-7-7-|7-7-7-7-7\------|
D-|7-7-7-7-7-7-7-7-|7-7-7-7-7\------|



hope this helps you learn this song :)
i think its all correct but please correct any mistakes i have made
please rate and comment
thanks
Tap to rate this tab
 
# A B C D E F G H I J K L M N O P Q R S T U V W X Y Z