Foo Fighters - Long Road To Ruin tab

Song - Long Road to Ruin
Artist - Foo Fighters
Album - Echoes, Silence, Patience & Grace

Tabbed by ben3296(bptrules@hotmail.com)

Standard Tuning
4/4
Moderately Fast - about 148bpm


Chords Used
-----------

C-------332010
Fsus2---x33011
Fadd9---x33013
Gadd4/B-x20013
D-------x00323
F5------133xxx
C5------x355xx
G/B-----x254xx
Am------x02210




Intro
-----
C



Verse 
-----
   C                                 C
e-|--0---0---0---0-|--------------3-|----------0---0-|----------------|
B-|--1---3---5---3-|--1---0---1-----|--1---3---5---3-|--1---0---1-----|
G-|----------------|----------------|----------------|--------------0-|
D-|----------------|----------------|----------------|----------------|
A-|----------------|----------------|----------------|----------------|
E-|----------------|----------------|----------------|----------------|

   Fsus2                             Fsus2
e-|--0---0---0---0-|--------------3-|----------0---0-|----------------|
B-|--1---3---5---3-|--1---0---1-----|--1---3---5---3-|--1---0---1-----|
G-|----------------|----------------|----------------|--------------0-|
D-|----------------|----------------|----------------|----------------|
A-|----------------|----------------|----------------|----------------|
E-|----------------|----------------|----------------|----------------|

**band enters here**

   C                                 C
e-|----0-0---0---0-|--------------3-|----------0---0-|----------------|
B-|----1-3---5---3-|--1---0---1-----|----1-3---5---3-|--1---0---1-----|
G-|----------------|----------------|----------------|--------------0-|
D-|----------------|----------------|----------------|----------------|
A-|----------------|----------------|----------------|----------------|
E-|----------------|----------------|----------------|----------------|

   Fsus2                             Fsus2
e-|----0-0---0---0-|--------------3-|----------0---0-|----------------|
B-|----1-3---5---3-|--1---0---1-----|----1-3---5---3-|--1---0---1-----|
G-|----------------|----------------|----------------|--------------0-|
D-|----------------|----------------|----------------|----------------|
A-|----------------|----------------|----------------|----------------|
E-|----------------|----------------|----------------|----------------|

   C
e-|----0-0---0---0-|----------------|
B-|----1-3---5---3-|--1---0---1-----|
G-|----------------|----------------|
D-|----------------|----------------|
A-|----------------|----------------|
E-|----------------|----------------|



Pre-Chorus
----------
   Fadd9            Gadd4/B          Fadd9            Gadd4/B
e-|----------------|----------------|----------------|----------------|
B-|----------------|----------------|----------------|----------------|
G-|----------------|----------------|----------------|----------------|
D-|----------------|----------------|----------------|----------------|
A-|0-----------0---|2-----------2---|3-----------3---|2-----------2---|
E-|------1---------|------3---------|------5---------|------3---------|

   Fadd9            Gadd4/B          Fadd9            D
e-|----------------|----------------|----------------|----------------|
B-|----------------|----------------|----------------|----------------|
G-|----------------|----------------|----------------|--------7-7-7---|
D-|----------------|----------------|----------------|----7-7-7-7-7---|
A-|0-----------0---|2-----------2---|3-----------3---|5---5-5-5-5-5-0-|
E-|------1---------|------3---------|------5---------|--------------0-|



Chorus
------
   F5               C5               F5               C5          G/B
e-|----------------|----------------|----------------|----------------|
B-|----------------|1---1-1---1-1---|----------------|1---1-1-1-1-0-0-|
G-|2---2-2---2-2---|0---0-0---0-0---|2---2-2---2-2---|0---0-0-0-0-0-0-|
D-|3---3-3---3-3-0-|2---2-2---2-2-0-|3---3-3---3-3-0-|2---2-2-2-2-0-0-|
A-|3---3-3---3-3-0-|3---3-3---3-3-0-|3---3-3---3-3-0-|3---3-3-3-3-2-2-|
E-|1---1-1---1-1-0-|3---3-3---3-3-0-|1---1-1---1-1-0-|3---3-3---------|

   Am               D                F5
e-|----------------|2---2-2---2-2---|----------------|----------------|
B-|----------------|3---3-3---3-3---|----------------|----------------|
G-|2---2-2---2-2---|2---2-2---2-2---|----------------|----------------|
D-|2---2-2---2-2-0-|0---0-0---0-0-0-|3-3-3-3-5-5-5-5-|7-7-7-7-9-9-9-9-|
A-|0---0-0---0-0-0-|0---0-0---0-0-0-|x-x-x-x-x-x-x-x-|x-x-x-x-x-x-x-x-|
E-|--------------0-|--------------0-|1-1-1-1-3-3-3-3-|5-5-5-5-7-7-7-7-|




Verse
-----
   C                                 C
e-|----0-0---0---0-|--------------3-|----------0---0-|----------------|
B-|----1-3---5---3-|--1---0---1-----|----1-3---5---3-|--1---0---1-----|
G-|----------------|----------------|----------------|--------------0-|
D-|----------------|----------------|----------------|----------------|
A-|----------------|----------------|----------------|----------------|
E-|----------------|----------------|----------------|----------------|

   Fsus2                             Fsus2
e-|----0-0---0---0-|--------------3-|----------0---0-|----------------|
B-|----1-3---5---3-|--1---0---1-----|----1-3---5---3-|--1---0---1-----|
G-|----------------|----------------|----------------|--------------0-|
D-|----------------|----------------|----------------|----------------|
A-|----------------|----------------|----------------|----------------|
E-|----------------|----------------|----------------|----------------|

   C                                 C
e-|----0-0---0---0-|--------------3-|----------0---0-|----------------|
B-|----1-3---5---3-|--1---0---1-----|----1-3---5---3-|--1---0---1-----|
G-|----------------|----------------|----------------|--------------0-|
D-|----------------|----------------|----------------|----------------|
A-|----------------|----------------|----------------|----------------|
E-|----------------|----------------|----------------|----------------|

   Fsus2                             Fsus2
e-|----0-0---0---0-|--------------3-|----------0---0-|----------------|
B-|----1-3---5---3-|--1---0---1-----|----1-3---5---3-|--1---0---1-----|
G-|----------------|----------------|----------------|--------------0-|
D-|----------------|----------------|----------------|----------------|
A-|----------------|----------------|----------------|----------------|
E-|----------------|----------------|----------------|----------------|




Pre-Chorus
----------
   Fadd9            Gadd4/B          Fadd9            Gadd4/B
e-|----------------|----------------|----------------|----------------|
B-|----------------|----------------|----------------|----------------|
G-|----------------|----------------|----------------|----------------|
D-|----------------|----------------|----------------|----------------|
A-|0-----------0---|2-----------2---|3-----------3---|2-----------2---|
E-|------1---------|------3---------|------5---------|------3---------|

   Fadd9            Gadd4/B          Fadd9            D
e-|----------------|----------------|----------------|----------------|
B-|----------------|----------------|----------------|----------------|
G-|----------------|----------------|----------------|--------7-7-7---|
D-|----------------|----------------|----------------|----7-7-7-7-7---|
A-|0-----------0---|2-----------2---|3-----------3---|5---5-5-5-5-5-0-|
E-|------1---------|------3---------|------5---------|--------------0-|



Chorus
------
   F5               C5               F5               C5          G/B
e-|----------------|----------------|----------------|----------------|
B-|----------------|1---1-1---1-1---|----------------|1---1-1-1-1-0-0-|
G-|2---2-2---2-2---|0---0-0---0-0---|2---2-2---2-2---|0---0-0-0-0-0-0-|
D-|3---3-3---3-3-0-|2---2-2---2-2-0-|3---3-3---3-3-0-|2---2-2-2-2-0-0-|
A-|3---3-3---3-3-0-|3---3-3---3-3-0-|3---3-3---3-3-0-|3---3-3-3-3-2-2-|
E-|1---1-1---1-1-0-|3---3-3---3-3-0-|1---1-1---1-1-0-|3---3-3---------|

   Am               D
e-|----------------|2---2-2---2-2---|
B-|----------------|3---3-3---3-3---|
G-|2---2-2---2-2---|2---2-2---2-2---|
D-|2---2-2---2-2-0-|0---0-0---0-0-0-|
A-|0---0-0---0-0-0-|0---0-0---0-0-0-|
E-|--------------0-|--------------0-|

   F5               C5               F5               C5          G/B
e-|----------------|----------------|----------------|----------------|
B-|----------------|1---1-1---1-1---|----------------|1---1-1-1-1-0-0-|
G-|2---2-2---2-2---|0---0-0---0-0---|2---2-2---2-2---|0---0-0-0-0-0-0-|
D-|3---3-3---3-3-0-|2---2-2---2-2-0-|3---3-3---3-3-0-|2---2-2-2-2-0-0-|
A-|3---3-3---3-3-0-|3---3-3---3-3-0-|3---3-3---3-3-0-|3---3-3-3-3-2-2-|
E-|1---1-1---1-1-0-|3---3-3---3-3-0-|1---1-1---1-1-0-|3---3-3---------|

   Am               D                F5
e-|----------------|2---2-2---2-2---|----------------|----------------|
B-|----------------|3---3-3---3-3---|----------------|----------------|
G-|2---2-2---2-2---|2---2-2---2-2---|----------------|----------------|
D-|2---2-2---2-2-0-|0---0-0---0-0-0-|3-3-3-3-5-5-5-5-|7-7-7-7-9-9-9-9-|
A-|0---0-0---0-0-0-|0---0-0---0-0-0-|x-x-x-x-x-x-x-x-|x-x-x-x-x-x-x-x-|
E-|--------------0-|--------------0-|1-1-1-1-3-3-3-3-|5-5-5-5-7-7-7-7-|



Bridge
------
Fadd9    Gadd4/B     Fadd9     Gadd4/B
Fadd9    Gadd4/B     Fadd9     Gadd4/B
Fadd9    Gadd4/B     Fadd9     Gadd4/B

   Fadd9            Gadd4/B          Fadd9            Gadd4/B
e-|----------------|----------------|----------------|----------------|
B-|----------------|----------------|----------------|----------------|
G-|----------------|----------------|----------------|----------------|
D-|----------------|----------------|----------------|----------------|
A-|0-----------0---|2-----------2---|3-----------3---|2-----------2---|
E-|------1---------|------3---------|------5---------|------3---------|

   Fadd9            Gadd4/B                           D
e-|----------------|----------------|----------------|----------------|
B-|----------------|----------------|----------------|----------------|
G-|----------------|----------------|----------------|----------------|
D-|----------------|----------------|----------------|----------------|
A-|0-----------0---|2-----------2-3-|----------------|----------------|
E-|------1---------|------3---------|----------------|17\-13\-10\-5\--|



Solo
----
   F5               C5                  F5               C5          G/B
e-|------3------------------------------------3--------------------------|
B-|--------------5b6--5-3h5p3p1-3-1-------------------5b6--5-3h5-3p1-----|
G-|--0h2-------0--------------------2p0---0h2-------0----------------2p0-|
D-|----------------------------------------------------------------------|
A-|----------------------------------------------------------------------|
E-|----------------------------------------------------------------------|

   Am                    D                   F5              C5
e-|---------------------------------------------------------------------------|
B-|1h3p1-1---------------------------------------------------------5----------|
G-|-----2-2p0-0----------------------------------------------------5-----5-7b9|
D-|----------2-2p0-0h2p0-0h2p0-0h2p0-0-------------------5---5h7-0-----7------|
A-|---------------3-----3-----3-----3--3-0-3---3-5-3-5h7---7-----0------------|
E-|---------------------------------------------------------------------------|

   F5              C5          G/B Am                 D
e-|---------------------------------------------------------------------|
B-|----------------------------0-0-5------------------------------------|
G-|9-9-9-9-9r7-5h7-5h7-5-------0-0-5------5------5------5---------------|
D-|----------------------------0-0---7p5----7p5----7p5--5---------------|
A-|-------------------------------------7------7------7---7p5p3-5-3-----|
E-|-----------------------------------------------------------------5-3-|



Chorus
------
   F5               C5               F5               C5          G/B
e-|----------------|----------------|----------------|----------------|
B-|----------------|1---1-1---1-1---|----------------|1---1-1-1-1-0-0-|
G-|2---2-2---2-2---|0---0-0---0-0---|2---2-2---2-2---|0---0-0-0-0-0-0-|
D-|3---3-3---3-3-0-|2---2-2---2-2-0-|3---3-3---3-3-0-|2---2-2-2-2-0-0-|
A-|3---3-3---3-3-0-|3---3-3---3-3-0-|3---3-3---3-3-0-|3---3-3-3-3-2-2-|
E-|1---1-1---1-1-0-|3---3-3---3-3-0-|1---1-1---1-1-0-|3---3-3---------|

   Am               D
e-|----------------|2---2-2---2-2---|
B-|----------------|3---3-3---3-3---|
G-|2---2-2---2-2---|2---2-2---2-2---|
D-|2---2-2---2-2-0-|0---0-0---0-0-0-|
A-|0---0-0---0-0-0-|0---0-0---0-0-0-|
E-|--------------0-|--------------0-|

   F5               C5               F5               C5          G/B
e-|----------------|----------------|----------------|----------------|
B-|----------------|1---1-1---1-1---|----------------|1---1-1-1-1-0-0-|
G-|2---2-2---2-2---|0---0-0---0-0---|2---2-2---2-2---|0---0-0-0-0-0-0-|
D-|3---3-3---3-3-0-|2---2-2---2-2-0-|3---3-3---3-3-0-|2---2-2-2-2-0-0-|
A-|3---3-3---3-3-0-|3---3-3---3-3-0-|3---3-3---3-3-0-|3---3-3-3-3-2-2-|
E-|1---1-1---1-1-0-|3---3-3---3-3-0-|1---1-1---1-1-0-|3---3-3---------|

   Am               D
e-|----------------|2---2-2---2-2---|
B-|----------------|3---3-3---3-3---|
G-|2---2-2---2-2---|2---2-2---2-2---|
D-|2---2-2---2-2-0-|0---0-0---0-0-0-|
A-|0---0-0---0-0-0-|0---0-0---0-0-0-|
E-|--------------0-|--------------0-|

   F5               C5               F5               C5          G/B
e-|----------------|----------------|----------------|----------------|
B-|----------------|1---1-1---1-1---|----------------|1---1-1-1-1-0-0-|
G-|2---2-2---2-2---|0---0-0---0-0---|2---2-2---2-2---|0---0-0-0-0-0-0-|
D-|3---3-3---3-3-0-|2---2-2---2-2-0-|3---3-3---3-3-0-|2---2-2-2-2-0-0-|
A-|3---3-3---3-3-0-|3---3-3---3-3-0-|3---3-3---3-3-0-|3---3-3-3-3-2-2-|
E-|1---1-1---1-1-0-|3---3-3---3-3-0-|1---1-1---1-1-0-|3---3-3---------|

   Am               D                F5
e-|----------------|2---2-2---2-2---|----------------|----------------|
B-|----------------|3---3-3---3-3---|----------------|----------------|
G-|2---2-2---2-2---|2---2-2---2-2---|----------------|----------------|
D-|2---2-2---2-2-0-|0---0-0---0-0-0-|3-3-3-3-5-5-5-5-|7-7-7-7-9-9-9-9-|
A-|0---0-0---0-0-0-|0---0-0---0-0-0-|x-x-x-x-x-x-x-x-|x-x-x-x-x-x-x-x-|
E-|--------------0-|--------------0-|1-1-1-1-3-3-3-3-|5-5-5-5-7-7-7-7-|

   F5                                              C
e-|-----------------------|-----------------------|----------------|
B-|-----------------------|-----------------------|----------------|
G-|-----------------------|-----------------------|----------------|
D-|10-10-10-10-12-12-12-12|14-14-14-14-15-15-15-15|10--------------|
A-|x--x--x--x--x--x--x--x-|x--x--x--x--x--x--x--x-|x---------------|
E-|8--8--8--8--10-10-10-10|12-12-12-12-13-13-13-13|8---------------|



Hope this helps learn this song :)
Apologies for any mistakes - please correct me
Send comments and rate too 
Thanks
Tap to rate this tab
 
# A B C D E F G H I J K L M N O P Q R S T U V W X Y Z