Song name
# A B C D E F G H I J K L M N O P Q R S T U V W X Y Z

Foo Fighters - Ballad Of The Beaconsfield Miners tab

Song:Ballad of the Beaconsfield Miners
Artist:Foo Fighters
Album:Echoes, Silence, Patience & Grace

Tabbed by ben3296(bptrules@hotmail.com)
Guitars 1 & 2 are acoustic
Standard tuning

Note - The layout of the song is after the tab at the bottom of the page


Section A
---------
(guitar 1)
e-|--------------------|--------------------|
B-|--------------------|--------------------|
G-|------0---0---0---0-|------0---0---0---0-|
D-|0h3h5---5---5---5---|0h3h5---5---5---5---|
A-|--------------------|--------------------|
E-|--------------------|--------------------|

(guitar 2)
e-|--------------------|--------------------|
B-|--------------------|--------------------|
G-|--------------0-----|--------------0-----|
D-|------0---0-------0-|------0---0-------0-|
A-|0h8h10--10--10--10--|0h8h10--10--10--10--|
E-|--------------------|--------------------|


Section B
---------
(guitar 1)
e-|----------------------|----------------------|----------------------|----------------------|
B-|----------------------|----------------------|----------------------|----------------------|
G-|------0---0-----0---0-|------0---0-----0---0-|------0---0-----0---0-|------0---0-----0---0-|
D-|0h7h9---9---0h9---12--|0h7h9---9---0h9---12--|0h5h7---7---0h7---10--|0h2h3---2-----2---2---|
A-|----------------------|----------------------|----------------------|----------------------|
E-|----------------------|----------------------|----------------------|----------------------|

(guitar 2)
e-|----------------------|----------------------|----------------------|----------------------|
B-|----------------------|----------------------|----------------------|----------------------|
G-|----------------0-----|----------------0-----|----------------0-----|----------------0-----|
D-|------0---9p0-------0-|------0---9p0-------0-|------0---7p0-------0-|------0---2p0-------0-|
A-|0h8h10--10----10--14--|0h8h10--10----10--14--|0h7h8---8-----8---12--|0h2h3---3-----3---7---|
E-|----------------------|----------------------|----------------------|----------------------|


Section C
---------
(guitar 1)
e-|------------------------|------------------------|
B-|------------------------|------------------------|
G-|------0---0-------0---0-|------0---0-------0---0-|
D-|3h4h5---5---3h4h5---5---|3h4h5---5---3h4h5---5---|
A-|------------------------|------------------------|
E-|------------------------|------------------------|

(guitar 2)
e-|------------------------|------------------------|
B-|------------------------|------------------------|
G-|----------0-----------0-|----------0-----------0-|
D-|------0-----------0-----|------0-----------0-----|
A-|0h1h2---2---0h1h2---2---|0h1h2---2---0h1h2---2---|
E-|------------------------|------------------------|


Section D
---------
(guitar 1)
e-|--------------------------------|--------------------|
B-|--------------------------------|--------------------|
G-|------0-------0-------0-------0-|------12--12--12--0-|
D-|0h2h3---0h3h5---0h5h7---0h7h9---|12------12--12--12--|
A-|--------------------------------|--------------------|
E-|--------------------------------|--------------------|

(guitar 2)
e-|--------------------------------|--------------------|
B-|--------------------------------|--------------------|
G-|--------------------------------|----------0---------|
D-|------0-------0-------0-------0-|------0-------0---0-|
A-|--------------------------------|--------------------|
E-|0h1h3---0h3h5---0h5h7---0h3h5---|0h1h3---3---3---3---|


Section E
---------
(guitar 1)
e-|----------------------|----------------------|----------------------|
B-|----------------------|----------------------|----------------------|
G-|------0---0---------0-|------0---0---------0-|------0---0---------0-|
D-|0h7h9---9---12-11-12--|0h7h9---9---12-11-9---|0h7h9---9---12-11-12--|
A-|----------------------|----------------------|----------------------|
E-|----------------------|----------------------|----------------------|

e-|----------------------|------------------------|------------------------|
B-|----------------------|------------------------|------------------------|
G-|------0---0---------0-|------0---0-------0---0-|------0---0-------0---0-|
D-|0h7h9---9---12-11-9---|0h7h9---9---0h7h9---9---|0h7h9---9---0h7h9---9---|
A-|----------------------|------------------------|------------------------|
E-|----------------------|------------------------|------------------------|

(guitar 2)
e-|----------------------|----------------------|----------------------|
B-|----------------------|----------------------|----------------------|
G-|----------0---------0-|----------0---------0-|----------0---------0-|
D-|------0---------------|------0---------------|------0---------------|
A-|0h8h10--10--14-13-14--|0h8h10--10--14-13-10--|0h8h10--10--14-13-14--|
E-|----------------------|----------------------|----------------------|

e-|----------------------|------------------------|------------------------|
B-|----------------------|------------------------|------------------------|
G-|----------0---------0-|----------0-----------0-|----------0-----------0-|
D-|------0---------------|------0-----------0-----|------0-----------0-----|
A-|0h8h10--10--14-13-14--|0h8h10--10--0h8h10--10--|0h8h10--10--0h8h10--10--|
E-|----------------------|------------------------|------------------------|


Section F
---------
(guitar 1)
e-|------------------------|------------------------|
B-|------------------------|------------------------|
G-|------0---0-------0---0-|------0---0-------0---0-|
D-|0h7h9---9---0h7h9---9---|0h7h9---9---0h7h9---9---|
A-|------------------------|------------------------|
E-|------------------------|------------------------|

(guitar 2)
e-|------------------------|------------------------|
B-|------------------------|------------------------|
G-|----------0-----------0-|----------0-----------0-|
D-|------0-----------0-----|------0-----------0-----|
A-|0h8h10--10--0h8h10--10--|0h8h10--10--0h8h10--10--|
E-|------------------------|------------------------|


Section G
---------
(guitar 1)
e-|------------------|--------------|--------8---|------10----|------12----|------13----|----15-|
B-|------------------|--------------|------8-----|----10------|----11------|----13------|--12---|
G-|--------2---------|----0---------|------------|------------|------------|------------|-------|
D-|----2h3-----3p2p0h|2h3---2p0h2---|------------|------------|------------|------------|-------|
A-|------------------|--------------|------------|------------|------------|------------|-------|
E-|------------------|--------------|------------|------------|------------|------------|-------|

(guitar 2)
e-|------------------|--------------|------------|------------|------------|------------|3------|
B-|8-----------------|--------------|--5---------|--6---------|--8---------|--10--------|3------|
G-|0-----------------|--------------|------------|------------|------------|------------|0------|
D-|8-----------------|--------------|5-----------|7-----------|8-----------|10----------|0------|
A-|7-----------------|--------------|------------|------------|------------|------------|2------|
E-|8-----------------|--------------|------------|------------|------------|------------|3------|


LAYOUT
------
Section A x2
Section B x4
Section C x1
Section D x4
Section B x4
Section C x1
Section D x4
Section E x2
Section F x3
Section G x1

Hope this helps
Please rate and leave comments and correct any mistakes I have made
Thanks :)
Tap to rate this tab
 
# A B C D E F G H I J K L M N O P Q R S T U V W X Y Z