Song name
# A B C D E F G H I J K L M N O P Q R S T U V W X Y Z

Foo Fighters - All My Life tab

Intro

*=Palm muted
/=slide
This Play Palm Muted
|---------------------------------------------|
|---------------------------------------------|
|---------------------------------------------|
|---------------------------------------------|
|-5-5--5-5-5--5-5-5--5-5-5--5-5-5--5-5-5------|
|-3-3--3-3-3--3-3-3--3-3-3--3-3-3--3-3-3------|
  * *  * * *  * * *  * * *  * * *  * * *
Guitar1
|----------------------------------------------------------|
|----------------------------------------------------------|
|----------------------------------------------------------|
|-5-5-x-5-5--5-5-x-5-5--7-7-7--5-5-x-5-5--5-5-x-5-5--8-8-8-|
|-5-5-x-5-5--5-5-x-5-5--7-7-7--5-5-x-5-5--5-5-x-5-5--8-8-8-|
|-3-3-0-3-3--3-3-0-3-3--5-5-5--3-3-0-3-3--3-3-0-3-3--6-6-6-|

Guitar2
|-----------------------------------------------------------|
|-3-3-3-3-3--3-3-3-3-3--5-5-5--3-3-3-3-3--3-3-3-3-3--6-6-6--|
|-3-3-3-3-3--3-3-3-3-3--5-5-5--3-3-3-3-3--3-3-3-3-3--6-6-6--|
|-----------------------------------------------------------|
|-----------------------------------------------------------|
|-3-3-0-3-3--3-3-0-3-3--5-5-5--3-3-0-3-3--3-3-0-3-3--6-6-6--|

Verse

Guitar1
|----------------------------------------------------------------|
|----------------------------------------------------------------|
|----------------------------------------------------------------|
|--------------------------7-7-7--------------------------8-8-8--|
|--------------------------7-7-7--------------------------8-8-8--|
|--------------------------5-5-5--------------------------6-6-6--|

Guitar2                                                            x2
|----------------------------------------------------------------|
|--------------------------5-5-5--------------------------6-6-6--|
|-----3-----3-----3-----3--5-5-5------3----3-----3-----3--6-6-6--|
|----------------------------------------------------------------|
|----------------------------------------------------------------|
|-3-3---3-3---3-3---3-3----5-5-5--3-3---3-3--3-3---3-3----6-6-6--|
  * *   * *   * *   * *           * *   * *  * *   * *    

Play the intro again
|------------------------------|
|------------------------------|
|------------------------------|
|------------------------------|
|--5-5--5-5-5--5-5-5--5-5-5----|
|--3-3--3-3-3--3-3-3--3-3-3----|
   * *  * * *  * * *  * * *

Chorus x 2
|--x-x-x-x-x-x-x-x--3-3-3-3-3-3-3-3--0-0-0-0-0-0-0-0--1-1-1-1-1-1-1-1-------------------|
|--4-4-4-4-4-4-4-4--0-0-0-0-0-0-0-0--0-0-0-0-0-0-0-0--1-1-1-1-1-1-1-1-------------------|
|--0-0-0-0-0-0-0-0--0-0-0-0-0-0-0-0--1-1-1-1-1-1-1-1--2-2-2-2-2-2-2-2--3-3-3-3-3-3-3-3--|
|--5-5-5-5-5-5-5-5--0-0-0-0-0-0-0-0--2-2-2-2-2-2-2-2--3-3-3-3-3-3-3-3--3-3-3-3-3-3-3-3--|
|--6-6-6-6-6-6-6-6--2-2-2-2-2-2-2-2--2-2-2-2-2-2-2-2--3-3-3-3-3-3-3-3--1-1-1-1-1-1-1-1--|
|--x-x-x-x-x-x-x-x--3-3-3-3-3-3-3-3--0-0-0-0-0-0-0-0--1-1-1-1-1-1-1-1-------------------|

Verse

Guitar1
|----------------------------------------------------------------|
|----------------------------------------------------------------|
|----------------------------------------------------------------|
|--------------------------7-7-7--------------------------8-8-8--|
|--------------------------7-7-7--------------------------8-8-8--|
|--------------------------5-5-5--------------------------6-6-6--|

Guitar2                                                            x2
|----------------------------------------------------------------|
|--------------------------5-5-5--------------------------6-6-6--|
|-----3-----3-----3-----3--5-5-5------3----3-----3-----3--6-6-6--|
|----------------------------------------------------------------|
|----------------------------------------------------------------|
|-3-3---3-3---3-3---3-3----5-5-5--3-3---3-3--3-3---3-3----6-6-6--|
  * *   * *   * *   * *           * *   * *  * *   * *    

Chorus x 2
|-------------------3-3-3-3-3-3-3-3--0-0-0-0-0-0-0-0--1-1-1-1-1-1-1-1-------------------|
|--4-4-4-4-4-4-4-4--0-0-0-0-0-0-0-0--0-0-0-0-0-0-0-0--1-1-1-1-1-1-1-1-------------------|
|--0-0-0-0-0-0-0-0--0-0-0-0-0-0-0-0--1-1-1-1-1-1-1-1--2-2-2-2-2-2-2-2--3-3-3-3-3-3-3-3--|
|--5-5-5-5-5-5-5-5--0-0-0-0-0-0-0-0--2-2-2-2-2-2-2-2--3-3-3-3-3-3-3-3--3-3-3-3-3-3-3-3--|
|--6-6-6-6-6-6-6-6--2-2-2-2-2-2-2-2--2-2-2-2-2-2-2-2--3-3-3-3-3-3-3-3--1-1-1-1-1-1-1-1--|
|-------------------3-3-3-3-3-3-3-3--0-0-0-0-0-0-0-0--1-1-1-1-1-1-1-1-------------------|

Interlude
|---------------------------------------------|
|---------------------------------------------|
|---------------------------------------------|
|---------------------------------------------|
|-5-5--5-5-5--5-5-5--5-5-5--5-5-5--5-5-5------|
|-3-3--3-3-3--3-3-3--3-3-3--3-3-3--3-3-3------|
  * *  * * *  * * *  * * *  * * *  * * *

|---------------------------------------------|
|---------------------------------------------|
|---------------------------------------------|
|-5-5--5-5-5--5-5-5--5-5-5--5-5-5--5-5-5------|
|-5-5--5-5-5--5-5-5--5-5-5--5-5-5--5-5-5------|
|-3-3--3-3-3--3-3-3--3-3-3--3-3-3--3-3-3------|

The other guitar do a bend but i don?t know it

Ultimate part at the Done! Done!
|-----------------------------------------------|
|-----------------------------------------------|
|-----------------------------------------------|
|-----------------------------------------------|
|-3/5-5--5-5-5--5-5-5--5-5-5--5-5-5--5-5-5------|
|-1/3-3--3-3-3--3-3-3--3-3-3--3-3-3--3-3-3------|
  
|-------------------3-3-3-3-3-3-3-3--0-0-0-0-0-0-0-0--1-1-1-1-1-1-1-1-------------------|
|--4-4-4-4-4-4-4-4--0-0-0-0-0-0-0-0--0-0-0-0-0-0-0-0--1-1-1-1-1-1-1-1-------------------|
|--0-0-0-0-0-0-0-0--0-0-0-0-0-0-0-0--1-1-1-1-1-1-1-1--2-2-2-2-2-2-2-2--3-3-3-3-3-3-3-3--|
|--5-5-5-5-5-5-5-5--0-0-0-0-0-0-0-0--2-2-2-2-2-2-2-2--3-3-3-3-3-3-3-3--3-3-3-3-3-3-3-3--|
|--6-6-6-6-6-6-6-6--2-2-2-2-2-2-2-2--2-2-2-2-2-2-2-2--3-3-3-3-3-3-3-3--1-1-1-1-1-1-1-1--|
|-------------------3-3-3-3-3-3-3-3--0-0-0-0-0-0-0-0--1-1-1-1-1-1-1-1-------------------|

|--------------------------------------------|
|--------------------------------------------|
|--------------------------------------------|
|--5-5-5--5-5-5--5-5-5--5-5-5--5-5-5---5-5---|
|--5-5-5--5-5-5--5-5-5--5-5-5--5-5-5---5-5---|
|--3-3-3--3-3-3--3-3-3--3-3-3--3-3-3---3-3---|

That?s all Thank you all you moth Fuk 
any comment at cobain438@hotmail.com


Tap to rate this tab
# A B C D E F G H I J K L M N O P Q R S T U V W X Y Z