Foo Fighters - This Is A Call chords

Highlighted       Show chord diagrams
Song:This is a Call
Artist:Foo Fighters
Album:Foo Fighters

Standard Tuning (eBGDAE)

Tabbed by ben3296(bptrules@hotmail.com)

Chords (eBGDAE)
---------------
E-001220
G-330023
A-x2220x
F#5-xxx442


Verse
-----
E                                                   G                     A E        G
Visiting is pretty, visiting is good. Seems that all they ever wanted was a brother.

E                                                  G                     A E
This can be a secret, we can keep it good. Even all the ever wanting had a problem.


Chorus
------
F#5        A         E              F#5    A              E         G
This is a call to all my past resignations. This is a call to all.


Verse
-----
E                                                           G                     A E         G
Fingernails are pretty, fingernails are good. Seems that all they ever wanted was a marking.

E                                                          G                          A   E
Them balloons are pretty, big and say they should ever fall to the ground, call the magic marker.


Chorus
------
F#5        A         E              F#5    A              E       A            F#5
This is a call to all my past resignations. This is a call to all. This is a call to all my

E            F#5   A
 past resignations. It's been too long.


Interlude
---------
e-|----------------|----------------|
B-|----------------|----------------|
G-|----7-----------|----------------|play
D-|----6---------2-|4-----7---5-5-5-|6 times
A-|----7-----5-6-0-|2-----5---5-5-5-|
E-|0-0-------3-4-0-|2-----5---3-3-3-|


Verse
-----
E                                                 G                           A  E        G
Minicyn is pretty, minicyn is good. Seems that all the cysts and molluscs tend to barter.

E                                         G                          A   E
Ritalin is easy, ritalin is good. Even all the ones who watered down the daughter.


Chorus
------
F#5        A         E              F#5    A              E       A            F#5
This is a call to all my past resignations. This is a call to all. This is a call to all my

E            F#5   A
 past resignations. It's been too long.


Interlude
---------
e-|----------------|----------------|
B-|----------------|----------------|
G-|----7-----------|----------------|play
D-|----6---------2-|4-----7---5-5-5-|6 times
A-|----7-----5-6-0-|2-----5---5-5-5-|
E-|0-0-------3-4-0-|2-----5---3-3-3-|


Verse
-----
E                                                           G                     A E         G
Fingernails are pretty, fingernails are good. Seems that all they ever wanted was a marking.

E                                                          G                          A   E
Them balloons are pretty, big and say they should ever fall to the ground, call the magic marker.


Chorus
------
F#5        A         E              F#5    A              E       A            F#5
This is a call to all my past resignations. This is a call to all. This is a call to all my

E            F#5   A
 past resignations. It's been too long.


Interlude
---------
e-|----------------|----------------|
B-|----------------|----------------|
G-|----7-----------|----------------|play
D-|----6---------2-|4-----7---5-5-5-|8 times
A-|----7-----5-6-0-|2-----5---5-5-5-|
E-|0-0-------3-4-0-|2-----5---3-3-3-|


Outro
-----
e-|----------------|        |----------------|        |----------------|----|
B-|----------------|        |----------------|        |----------------|----|
G-|----------------|play    |----------------|play    |----------0-----|----|
D-|----------------|2 times |----5-----5-4-5-|4 times |----5-----5-----|2-2-|
A-|----5-----5-4-5-|        |----5-----5-4-5-|        |----5-----5-----|2-2-|
E-|0-0---0-0-------|        |0-0---0-0-------|        |0-0---0-0-3-----|0-0-|


Hope this helps
Please comment, rate and correct any mistakes
Thanks :)
Tap to rate this tab
 
# A B C D E F G H I J K L M N O P Q R S T U V W X Y Z