Song name
# A B C D E F G H I J K L M N O P Q R S T U V W X Y Z

Foo Fighters - My Hero tab

                MY HERO
                           As recorded by Foo Fighters
                 (From the 1997 Album THE COLOUR AND THE SHAPE)

Words and Music by Dave Grohl

Gtr I (E A D G B E) - '1st'
Gtr II (E A D G B E) - '2nd'

  Q=160
 4/4
  Gtrs I, II
    Wx8
|----------|
|----------|
|----------|
|----------|
|----------|
|----------|


  Q  Q  Q  Q    +W           Q  Q  Q  Q    +W
|-0--0--0--0--|-(0)--------|-0--0--0--0--|-(0)----|
|-4--5--4--0--|-(0)--------|-4--5--4--0--|-(0)----|
|-------------|------------|-------------|--------|
|-------------|------------|-------------|--------|
|-------------|------------|-------------|--------|
|-------------|------------|-------------|--------|


  E               C#5
  Gtr I
  Q   E E +S  S E E E    E  E E E E E E E
|---------------------|--2--------2-------|
|-5---5-5-(5)---5-4-4-|-----4-4-4---4-4-4-|
|---------------------|-------------------|
|---------------------|-------------------|
|---------------------|-------------------|
|---------------------|-------------------|
|
| Gtr II
| H.              Q     +W
|-0-------------------|-------------------|
|-0-------------------|-------------------|
|-1---------------6---|-(6)---------------|
|-2---------------6---|-(6)---------------|
|-2---------------4---|-(4)---------------|
|-0-------------------|-------------------|


  E               C#5
  Q   E E +S  S E E E    E  E E E E E E E
|---------------------|--2--------2-------|
|-5---5-5-(5)---5-4-4-|-----4-4-4---5-5-5-|
|---------------------|-------------------|
|---------------------|-------------------|
|---------------------|-------------------|
|---------------------|-------------------|
|
| H.              Q     +W
|-0-------------------|-------------------|
|-0-------------------|-------------------|
|-1---------------6---|-(6)---------------|
|-2---------------6---|-(6)---------------|
|-2---------------4---|-(4)---------------|
|-0-------------------|-------------------|


  E               C#5
  Q   E E +S  S E E E    E  E E E E E E E
|---------------------|--2--------2-------|
|-5---5-5-(5)---5-4-4-|-----4-4-4---4-4-4-|
|---------------------|-------------------|
|---------------------|-------------------|
|---------------------|-------------------|
|---------------------|-------------------|
|
| H.              Q     +W
|-0-------------------|-------------------|
|-0-------------------|-------------------|
|-1---------------6---|-(6)---------------|
|-2---------------6---|-(6)---------------|
|-2---------------4---|-(4)---------------|
|-0-------------------|-------------------|


  E               C#5
  Q   E E +S  S E E E    E  E E E E E E E
|---------------------|--2--------2-------|
|-5---5-5-(5)---5-4-4-|-----4-4-4---5-5-5-|
|---------------------|-------------------|
|---------------------|-------------------|
|---------------------|-------------------|
|---------------------|-------------------|
|
| H.              Q     +W
|-0-------------------|-------------------|
|-0-------------------|-------------------|
|-1---------------6---|-(6)---------------|
|-2---------------6---|-(6)---------------|
|-2---------------4---|-(4)---------------|
|-0-------------------|-------------------|


  Gtrs I, II
  Q  E E E E Q    +H     H
|---------------|-------------|
|---------------|-------------|
|---------------|-------------|
|---------------|-------------|
|------4-2------|-------------|
|-2--2-----4-5--|-(5)---------|


    Gtr I
    Q  Q    Q      Q     +W
||--0--0----0------0---|-(0)---------------|
||o-4--5----4------0---|-(0)---------------|
||---------------------|-------------------|
||---------------------|-------------------|
||o--------------------|-------------------|
||---------------------|-------------------|
|
|   Gtr II
|   Q  E E +S  S E E E    E  E E E E E E E
||---------------------|--2--------2-------|
||o-5--5-5-(5)---5-4-4-|-----4-4-4---4-4-4-|
||---------------------|-------------------|
||---------------------|-------------------|
||o--------------------|-------------------|
||---------------------|-------------------|


  Q  Q    Q      Q     +W                  4x
|-0--0----0------0---|-(0)-----------------||
|-4--5----4------0---|-(0)----------------o||
|--------------------|---------------------||
|--------------------|---------------------||
|--------------------|--------------------o||
|--------------------|---------------------||
|
| Q  E E +S  S E E E    E  E E E E E  E E  4x
|--------------------|--2--------2---------||
|-5--5-5-(5)---5-4-4-|-----4-4-4---5--5-5-o||
|--------------------|---------------------||
|--------------------|---------------------||
|--------------------|--------------------o||
|--------------------|---------------------||


    A5   Eb     E    F#      A5   Eb     E    B
    H    H      H     H      H    H      H    H
||------------|------------|-----------|----------|
||o-----------|------------|-----------|----------|
||-------8----|-9----11----|------8----|-9----4---|
||--7----x----|-x-----x----|-7----x----|-x----x---|
||o-7----6----|-7-----9----|-7----6----|-7----2---|
||--5---------|------------|-5---------|----------|
|
|   H    H      H     H      H    H      H    H
||------------|------------|-----------|----------|
||o-----------|------------|-----------|----------|
||-------8----|-9----11----|------8----|-9----4---|
||--7----x----|-x-----x----|-7----x----|-x----x---|
||o-7----6----|-7-----9----|-7----6----|-7----2---|
||--5---------|------------|-5---------|----------|


  E5   Eb     E    F#      E5   F#      G#    Eb
  H    H      H     H      H     H       H    H
|-----------|------------|------------|-------------||
|-----------|------------|------------|------------o||
|------8----|-9----11----|------11----|-13----8-----||
|-2----x----|-x-----x----|-2-----x----|--x----x-----||
|-2----6----|-7-----9----|-2-----9----|-11----6----o||
|-0---------|------------|-0----------|-------------||
|
| H    H      H     H      H     H       H    H
|-----------|------------|------------|-------------||
|-----------|------------|------------|------------o||
|------8----|-9----11----|------11----|-13----8-----||
|-2----x----|-x-----x----|-2-----x----|--x----x-----||
|-2----6----|-7-----9----|-2-----9----|-11----6----o||
|-0---------|------------|-0----------|-------------||


  Q  E E E E Q    +W           Q  Q   Q  Q      +H     H
|---------------|------------|-0--0---0-------|-------------|
|---------------|------------|-4--5---4-------|-------------|
|---------------|------------|-----------4b6r=|=(4)---------|
|---------------|------------|----------------|-------------|
|------4-2------|------------|----------------|-------------|
|-2--2-----4-5--|-(5)--------|----------------|-------------|
|
| Q  E E E E Q    +W                W                  W
|---------------|------------|----------------|-------------|
|---------------|------------|----------------|-------------|
|---------------|------------|----------------|-------------|
|---------------|------------|----------------|-------------|
|------4-2------|------------|----------------|-------------|
|-2--2-----4-5--|-(5)--------|----------------|-------------|


    Q   Q    Q      Q     +W
||--0---0----0------0---|-(0)---------------|
||o-4---5----4------0---|-(0)---------------|
||----------------------|-------------------|
||----------------------|-------------------|
||o---------------------|-------------------|
||----------------------|-------------------|
|
|   Q   E E +S  S E E E    E  E E E E E E E
||----------------------|--2--------2-------|
||o-5---5-5-(5)---5-4-4-|-----4-4-4---4-4-4-|
||----------------------|-------------------|
||----------------------|-------------------|
||o---------------------|-------------------|
||----------------------|-------------------|


  Q  Q    Q      Q     +W                 4x
|-0--0----0------0---|-(0)----------------||
|-4--5----4------0---|-(0)---------------o||
|--------------------|--------------------||
|--------------------|--------------------||
|--------------------|-------------------o||
|--------------------|--------------------||
|
| Q  E E +S  S E E E    E  E E E E E E E  4x
|--------------------|--2--------2--------||
|-5--5-5-(5)---5-4-4-|-----4-4-4---5-5-5-o||
|--------------------|--------------------||
|--------------------|--------------------||
|--------------------|-------------------o||
|--------------------|--------------------||


    A5   Eb     E    F#      A5   Eb     E    B
    H    H      H     H      H    H      H    H
||------------|------------|-----------|----------|
||o-----------|------------|-----------|----------|
||-------8----|-9----11----|------8----|-9----4---|
||--7----x----|-x-----x----|-7----x----|-x----x---|
||o-7----6----|-7-----9----|-7----6----|-7----2---|
||--5---------|------------|-5---------|----------|
|
|   H    H      H     H      H    H      H    H
||------------|------------|-----------|----------|
||o-----------|------------|-----------|----------|
||-------8----|-9----11----|------8----|-9----4---|
||--7----x----|-x-----x----|-7----x----|-x----x---|
||o-7----6----|-7-----9----|-7----6----|-7----2---|
||--5---------|------------|-5---------|----------|


  E5   Eb     E    F#      E5   F#      G#    Eb
  H    H      H     H      H     H       H    H
|-----------|------------|------------|-------------||
|-----------|------------|------------|------------o||
|------8----|-9----11----|------11----|-13----8-----||
|-2----x----|-x-----x----|-2-----x----|--x----x-----||
|-2----6----|-7-----9----|-2-----9----|-11----6----o||
|-0---------|------------|-0----------|-------------||
|
| H    H      H     H      H     H       H    H
|-----------|------------|------------|-------------||
|-----------|------------|------------|------------o||
|------8----|-9----11----|------11----|-13----8-----||
|-2----x----|-x-----x----|-2-----x----|--x----x-----||
|-2----6----|-7-----9----|-2-----9----|-11----6----o||
|-0---------|------------|-0----------|-------------||


  Gtrs I, II
  Q  E E E E Q    +W
|---------------|--------|
|---------------|--------|
|---------------|--------|
|---------------|--------|
|------4-2------|--------|
|-2--2-----4-5--|-(5)----|


    Q  Q  Q  Q    +H     E E E E   Q  Q  Q  Q      +W
||--0--0--0--0--|-(0)--------0---|-0--0--0--0----|-(0)-----||
||o-4--5--4--0--|-(0)----0-0---0-|-4--5--4-------|--------o||
||--------------|----------------|----------4b6r=|=(4)-----||
||--------------|----------------|---------------|---------||
||o-------------|----------------|---------------|--------o||
||--------------|----------------|---------------|---------||


  Gtr I
        TP TP      TP           TP           TP           TP
  Q  Q  Q  Q      +W           +W           +W           +W
|-0--0--0--0--||--(0)--------|-(0)--------|-(0)--------|-(0)-----||
|-4--5--x--x--||o-(x)--------|-(x)--------|-(x)--------|-(x)----o||
|-------8--9--||--(9)--------|-(9)--------|-(9)--------|-(9)-----||
|-------------||-------------|------------|------------|---------||
|-------------||o------------|------------|------------|--------o||
|-------------||-------------|------------|------------|---------||
|
| Gtr II
|       TP TP      TP           TP           TP           TP
| Q  Q  Q  Q      +W           +W           +W           +W
|-0--0--0--0--||--(0)--------|-(0)--------|-(0)--------|-(0)-----||
|-4--5--7--9--||o-(9)--------|-(9)--------|-(9)--------|-(9)----o||
|-------------||-------------|------------|------------|---------||
|-------------||-------------|------------|------------|---------||
|-------------||o------------|------------|------------|--------o||
|-------------||-------------|------------|------------|---------||


    E               C#5
    Gtr I
    Q   E E +S  S E E E    E  E E E E E E E
||----------------------|--2--------2-------|
||o-5---5-5-(5)---5-4-4-|-----4-4-4---4-4-4-|
||----------------------|-------------------|
||----------------------|-------------------|
||o---------------------|-------------------|
||----------------------|-------------------|
|
|   Gtr II
|   H.              Q     +W
||--0-------------------|-------------------|
||o-0-------------------|-------------------|
||--1---------------6---|-(6)---------------|
||--2---------------6---|-(6)---------------|
||o-2---------------4---|-(4)---------------|
||--0-------------------|-------------------|


  E               C#5
  Q   E E +S  S E E E    E  E E E E E E E
|---------------------|--2--------2---------||
|-5---5-5-(5)---5-4-4-|-----4-4-4---5-5-5--o||
|---------------------|---------------------||
|---------------------|---------------------||
|---------------------|--------------------o||
|---------------------|---------------------||
|
| H.              Q     +W
|-0-------------------|---------------------||
|-0-------------------|--------------------o||
|-1---------------6---|-(6)-----------------||
|-2---------------6---|-(6)-----------------||
|-2---------------4---|-(4)----------------o||
|-0-------------------|---------------------||


    A5   Eb     E    F#      A5   Eb     E    B
    H    H      H     H      H    H      H    H
||------------|------------|-----------|----------|
||o-----------|------------|-----------|----------|
||-------8----|-9----11----|------8----|-9----4---|
||--7----x----|-x-----x----|-7----x----|-x----x---|
||o-7----6----|-7-----9----|-7----6----|-7----2---|
||--5---------|------------|-5---------|----------|
|
|   H    H      H     H      H    H      H    H
||------------|------------|-----------|----------|
||o-----------|------------|-----------|----------|
||-------8----|-9----11----|------8----|-9----4---|
||--7----x----|-x-----x----|-7----x----|-x----x---|
||o-7----6----|-7-----9----|-7----6----|-7----2---|
||--5---------|------------|-5---------|----------|


                                        1.,2.,3.
  E5   Eb     E    F#      E5   F#      G#    Eb
  H    H      H     H      H     H       H    H     4x
|-----------|------------|------------|-------------||
|-----------|------------|------------|------------o||
|------8----|-9----11----|------11----|-13----8-----||
|-2----x----|-x-----x----|-2-----x----|--x----x-----||
|-2----6----|-7-----9----|-2-----9----|-11----6----o||
|-0---------|------------|-0----------|-------------||
|
| H    H      H     H      H     H       H    H     4x
|-----------|------------|------------|-------------||
|-----------|------------|------------|------------o||
|------8----|-9----11----|------11----|-13----8-----||
|-2----x----|-x-----x----|-2-----x----|--x----x-----||
|-2----6----|-7-----9----|-2-----9----|-11----6----o||
|-0---------|------------|-0----------|-------------||


  4.
  G#
   ~~
   W          Q  E E E E Q    +W           Q  Q  Q  Q
|-----------|---------------|------------|-0--0--0--------|
|-----------|---------------|------------|-4--5--4--------|
|-13--------|---------------|------------|----------4b6r==|
|--x--------|---------------|------------|----------------|
|-11--------|------4-2------|------------|----------------|
|-----------|-2--2-----4-5--|-(5)--------|----------------|
|
|  ~~
|  W          Q  E E E E Q    +W           Q  Q  Q  Q
|-----------|---------------|------------|-0--0--0--0-----|
|-----------|---------------|------------|-4--5--4--------|
|-13--------|---------------|------------|----------4-----|
|--x--------|---------------|------------|----------------|
|-11--------|------4-2------|------------|----------------|
|-----------|-2--2-----4-5--|-(5)--------|----------------|


   >
  +W           +W
|------------|--------*|
|------------|--------*|
|-(4)--------|-(4)----*|
|------------|--------*|
|------------|--------*|
|------------|--------*|
|
|  >
| +W           +W
|------------|--------*|
|------------|--------*|
|-(4)--------|-(4)----*|
|------------|--------*|
|------------|--------*|
|------------|--------*|


Duration Legend
---------------
W - whole; H - half; Q - quarter; E - 8th; S - 16th; T - 32nd; X - 64th; a - acciaccatura
+ - note tied to previous; . - note dotted; .. - note double dotted
Uncapitalized letters represent notes that are staccato (1/2 duration)
Irregular groupings are notated above the duration line
Duration letters will always appear directly above the note/fret number it represents the
duration for.  Duration letters with no fret number below them represent rests.  Multi-
bar rests are notated in the form Wxn, where n is the number of bars to rest for.  Low
melody durations appear below the staff

Tablature Legend
----------------
 h   - hammer-on
 p   - pull-off
 b   - bend
 pb  - pre-bend
 r   - bend release (if no number after the r, then release immediately)
 /\  - slide into or out of (from/to "nowhere")
 s   - legato slide
 S   - shift slide
  - natural harmonic
[n]  - artificial harmonic
n(n) - tapped harmonic
 ~   - vibrato
 tr  - trill
 T   - tap
 TP  - trem. picking
 PM  - palm muting
\n/  - tremolo bar dip; n = amount to dip
 \n  - tremolo bar down
 n/  - tremolo bar up
/n\  - tremolo bar inverted dip
 =   - hold bend; also acts as connecting device for hammers/pulls
 <>  - volume swell (louder/softer)
 x   - on rhythm slash represents muted slash
 o   - on rhythm slash represents single note slash

Misc Legend
-----------
 |  - bar
||  - double bar
||o - repeat start
o|| - repeat end
*|  - double bar (ending)
 :  - bar (freetime)
 $  - Segno
 &  - Coda
Tempo markers -  = BPM(8/16=s8/s16), where s8 = swing 8ths, s16 = swing 16ths


Tap to rate this tab
# A B C D E F G H I J K L M N O P Q R S T U V W X Y Z