Foo Fighters - This Is A Call tab

-----------------------------------------------------------------
This is a Call- Foo Fighters
-----------------------------------------------------------------
Tabbed by: Daniel!
Email: ping3pong3@hotmail.com

This is just a touch up on some of the other tabs I've seen.
It is pretty much exactly the same as them.
So don't complain about it, this version sounds just a little more correct.
Figure out the strumming for the intro by listening to the song, its not too hard.

Tuning: (standard) EADGBe

Intro

   E      E      G      A A     E     G G      ?
e|-0------0------3------0-0-----0-----3-3------0-----------------|
B|-0------0------3------2-2-----0-----3-3------0-----------------|
G|-1------1------0------2-2-----1-----0-0------0-----------------|
D|-2------2------0------2-2-----2-----0-0------0-----------------|
A|-2------2------2------0-0-----2-----2-2------0-----------------|
E|-0------0------3--------------0-----3-3------0-----------------|

Verse

   E      E      G      A A     E           
e|-0------0------3------0-0-----0-----------------------------|
B|-0------0------3------2-2-----0-----------------------------|
G|-1------1------0------2-2-----1-----------------------------|
D|-2------2------0------2-2-----2-----------------------------|
A|-2------2------2------0-0-----2-----------------------------|
E|-0------0------3--------------0-----------------------------|

Chorus Guitar 1

    F#5     A      E     F#5     A      E      G
e||--0------0------0------0------0------0------3--|
B||--0------2------0------0------2------0------3--|
G||--3------2------1------3------2------1------0--|
D||--4------2------2------4------2------2------0--|
A||--4------0------2------4------0------2------2--|
E||--2-------------0------2-------------0------3--|
   
Chorus guitar 2
                                                     last time only
e||-------0-------0-------0-----0-------0-------0--|-----0--0-------------|
B||----0-----0---------0----0--------0-----0-------|---0----0-------------|
G||--3----------3----2--------2----1----------1----|-1------1-------------|
D||------------------------------------------------|----------------------|
A||----------play this twice-----------------------|----------------------|
E||------------------------------------------------|----------------------|

Verse 2 x2

   E      E      G      A A     E      G G      
e|-0------0------3------0-0-----0--|---3-3---|
B|-0------0------3------2-2-----0--|---3-3---| Don't play G
G|-1------1------0------2-2-----1--|---0-0---| on the last time
D|-2------2------0------2-2-----2--|---0-0---|
A|-2------2------2------0-0-----2--|---2-2---|
E|-0------0------3--------------0--|---3-3---|

Chorus Guitar 1

    F#5     A      E     F#5     A       E      G
e||--0------0------0------0------0---|---0------3--|
B||--0------2------0------0------2---|---0------3--|
G||--3------2------1------3------2---|---1------0--| play twice
D||--4------2------2------4------2---|---2------0--|
A||--4------0------2------4------0---|---2------2--|
E||--2-------------0------2----------|---0------3--|
                                      Don't play on last time
Chorus guitar 2
                                                    
e||-------0-------0-------0-----0-------0-------0--|
B||----0-----0---------0----0--------0-----0-------|
G||--3----------3----2--------2----1----------1----|
D||------------------------------------------------|
A||----------play this four times------------------|
E||------------------------------------------------|

Bridge Guitar 1 (it is 10,10 not 1,0,1,0 and 12,12 not 1,2,1,2)

e|------------------------------------------------------|
B|------------------------------------------------------|
G|-----7------------------------------------------------|
D|-----6--55-6-9--9-12-7-55-----play this---------------|
A|-----7--55-6-9--9-10-7-55-----six times---------------|
E|-0-0-0--33-4-7--7-10-5-33-----------------------------|

Bridge Guitar 2

e|------------------------------------------------------|
B|------------------------------------------------------|
G|-----7------------------------------------------------|
D|-----6--55-6-2--2-7-55--------play this---------------|
A|-----7--55-6-2--2-7-55--------six times---------------|
E|-0-0-0--33-4-0--0-5-33--------------------------------|

Outro

e|---------------------------------------------------------------|
B|---------------------------------------------------------------|
G|---------------------------------------------------------------|
D|---------------------------------------------------------------|
A|---------------------------------------------------------------|
E|-0-0-10-0-0-10-9-10----play 2 times----------------------------|

then
                                              G      E E
e|-play the first time palm muted-------------3------0-0---------|
B|--------------------------------------------3------0-0---------|
G|--then the other 4 times normally-----------0------1-1---------|
D|--------------------------------------------0------2-2---------|
A|--------------------------------------then--2------2-2---------|
E|-0-0-16-0-0-16-15-16----play 5 times--------3------0-0---------|

Sturcture:

intro ........ x 1
verse ........ x 1
chorus ....... x 1
verse 2 ...... x 2
chorus ....... x 2
bridge ....... x 6
verse 2 ...... x 2
chorus ....... x 4
bridge ....... x 6
intro ........ x 1
verse ........ x 1
chorus ....... x 2
bridge ....... x 8
outro ........ x 1

The structure isn't 100% but i did my best.
e-mail me if you have any problems


Lyrics

Visiting is pretty
Visiting is good
Seems that all they ever wanted was a brother

This can be a secret
We can keep it good
Even all the ever wanting had a problem

This is a call to all my
Past resignations
This is a call to all

Fingernails are pretty
Fingernails are good
Seems that all they ever wanted was a marking

Them balloons are pretty
Big and say they should
Ever fall to ground
Call the magic marker

This is a call to all my
Past resignations
This is a call to all
This is a call to all my
Past resignations
It's been too long

Minocin is pretty
Minocin is good
Even all the cysts and mollusks tend to barter

Ritalin is easy
Ritalin is good
Even all the ones
Who watered down the daughter

This is a call to all my
Past resignations
This is a call to all
This is a call to all my
Past resignations
It's been too long

Fingernails are pretty
Fingernails are good
Seems that all they ever wanted was a marking

Them balloons are pretty
Big and say they should
Ever fall to ground
Call the magic marker

This is a call to all my
Past resignations
This is a call to all
This is a call to all my
Past resignations
It's been too long
Tap to rate this tab
 
# A B C D E F G H I J K L M N O P Q R S T U V W X Y Z