Foo Fighters - Lonely As You tab

Foo Fighters - Lonely As You

Album: One By One
Instrument: Guitar
Tuning: eBGDAE

Tabbed By: boogybren

I have gone back and forth with this on the tuning for over a year
 and have found that the bass guitar is what is throwing me off.
This is what I feel is the original tuning and notes as recorded 
on the album.

Intro
e||---------------------------------------||
B||--------------0------------------------||
G||-----6-------------------------8---7---||
D||--8--8--6--8----4--4--6--8--8--9---9---||
A||--9--8--7-------6--5--------9--9---9---||
E||--9-----7-------6--5--------9----------||

e||-------------------------------7--||
B||--------------0-------------------||
G||-----6-------------------------8--||
D||--8--8--6--8----4--4--6--8--8--9--||
A||--9--8--7-------6--5--------9--9--||
E||--9-----7-------6--5--------9-----||

Verse (palm muted) [listen close, there is no D string action here]
Wake up your dreaming...
    xxxxxxxxxxxxxxxxxxxxxxxxxxxxxxxxxxxPALM MUTEDxxxxxxxxxxxxxxxxxxxxxxxxxxxxxxxxxxx
e|------------------------------------------------------------------------------------|
B|------------------------------------------------------------------------------------|
G|------------------------------------------------------------------------------------|
D|------------------------------------------------------------------------------------|
A|--44444444--88888888--77777777--66666666--55555--777--99999999--66666666--55555555--|
E|--22222222--66666666--77777777--66666666--55555--777--99999999--44444444--33333333--|

                                                                                 o
                                                                                 p
Spare all the preaching...                                                       e
    xxxxxxxxxxxxxxxxxxxxxxxxxxxxxxxxxxxPALM MUTEDxxxxxxxxxxxxxxxxxxxxxxxxxxxxxxxxn
e|----------------------------------------------------------------------------------|
B|----------------------------------------------------------------------------------|
G|----------------------------------------------------------------------------------|
D|-------------------------------------------------------------------------------9--|
A|--44444444--88888888--77777777--66666666--55555--777--99999999--9999999999999999--|
E|--22222222--66666666--77777777--66666666--55555--777--99999999--7777777777777777--|

Keep out of reach....
    xxxxxxxxxxxxxxxxxxxxxxxxxxxxxxxxxxxPALM MUTEDxxxxxxxxxxxxxxxxxxxxxxxxxxxxxxxxxxx
e|------------------------------------------------------------------------------------|
B|------------------------------------------------------------------------------------|
G|------------------------------------------------------------------------------------|
D|------------------------------------------------------------------------------------|
A|--44444444--88888888--77777777--66666666--55555--777--99999999--66666666--55555555--|
E|--22222222--66666666--77777777--66666666--55555--777--99999999--44444444--33333333--|

Every now and then...
    xxxxxxxxxxxxxxPALM MUTEDxxxxxxxxxxxxxx
e|------------------------------------------|
B|------------------------------------------|
G|------------------------------------------|
D|------------------------------------------|
A|--44444444--88888888--77777777--66666666--|
E|--22222222--66666666--77777777--66666666--|

GUITAR 1
Down and out again....
OPEN -->
e|------------------------------------------------------------------------------------------|
B|------------------------------------------------------------------------------------------|
G|------------------------------------------------------------------------------------------|
D|------------------------------------------------------------------------------------------|
A|--5-55--7--99999--5-55--7--99999--5-55--7--99999--99999999--77777777--66666666--55555555--|
E|--5-55--7--99999--5-55--7--99999--5-55--7--99999--77777777--55555555--44444444--33333333--|

GUITAR 2
E|------------------------------------------------------------------------------------------|
B|------------------------------------------------------------------------------------------|
G|--------------------------------------------------8---------11\6------11\5-------11\4-----|
D|------------------------------------------------------------------------------------------|
A|------------------------------------------------------------------------------------------|
E|------------------------------------------------------------------------------------------|

CHORUS
GUITAR 1 [repeat 4x's]
e|-------------------------------------------------------|
B|-------------------------------------------------------|
G|-------------------------------777-------999-------12--|
D|--111111--101010--999--888--7--777--777--999--999--12--|
A|---9-9-9---8-8-8--777--666--5--555--777--777--999--10--|
E|---9-9-9---8-8-8--777--666--5-------555-------777------|

Verse (palm muted) [listen close, there is no D string action here]
Blame it on youth...
    xxxxxxxxxxxxxxxxxxxxxxxxxxxxxxxxxxxPALM MUTEDxxxxxxxxxxxxxxxxxxxxxxxxxxxxxxxxxxx
e|------------------------------------------------------------------------------------|
B|------------------------------------------------------------------------------------|
G|------------------------------------------------------------------------------------|
D|------------------------------------------------------------------------------------|
A|--44444444--88888888--77777777--66666666--55555--777--99999999--66666666--55555555--|
E|--22222222--66666666--77777777--66666666--55555--777--99999999--44444444--33333333--|

                                                                                 o
                                                                                 p
Blame all the children...                                                        e
    xxxxxxxxxxxxxxxxxxxxxxxxxxxxxxxxxxxPALM MUTEDxxxxxxxxxxxxxxxxxxxxxxxxxxxxxxxxn
e|----------------------------------------------------------------------------------|
B|----------------------------------------------------------------------------------|
G|----------------------------------------------------------------------------------|
D|-------------------------------------------------------------------------------9--|
A|--44444444--88888888--77777777--66666666--55555--777--99999999--9999999999999999--|
E|--22222222--66666666--77777777--66666666--55555--777--99999999--7777777777777777--|

Every now and then...
    xxxxxxxxxxxxxxPALM MUTEDxxxxxxxxxxxxxx
e|------------------------------------------|
B|------------------------------------------|
G|------------------------------------------|
D|------------------------------------------|
A|--44444444--88888888--77777777--66666666--|
E|--22222222--66666666--77777777--66666666--|

GUITAR 1
Down and out again....
OPEN -->
e|------------------------------------------------------------------------------------------|
B|------------------------------------------------------------------------------------------|
G|------------------------------------------------------------------------------------------|
D|------------------------------------------------------------------------------------------|
A|--5-55--7--99999--5-55--7--99999--5-55--7--99999--99999999--77777777--66666666--55555555--|
E|--5-55--7--99999--5-55--7--99999--5-55--7--99999--77777777--55555555--44444444--33333333--|

GUITAR 2
E|------------------------------------------------------------------------------------------|
B|------------------------------------------------------------------------------------------|
G|--------------------------------------------------8---------11\6------11\5-------11\4-----|
D|------------------------------------------------------------------------------------------|
A|------------------------------------------------------------------------------------------|
E|------------------------------------------------------------------------------------------|

CHORUS
GUITAR 1 [repeat 4x's]
e|-------------------------------------------------------|
B|-------------------------------------------------------|
G|-------------------------------777-------999-------12--|
D|--111111--101010--999--888--7--777--777--999--999--12--|
A|---9-9-9---8-8-8--777--666--5--555--777--777--999--10--|
E|---9-9-9---8-8-8--777--666--5-------555-------777------|

SOLO
GUITAR 1
e||--------------------------------------------------------------------|
B||--------------------------------------------------------------------|
G||--------------------------------------------------------------------|
D||--------------9999--8888--777--9--11-11-11-11-11--------------------|
A||--4444--8888--7777--6666--555--7---9--9--9--9--9--6666--5555--2222--|
E||--2222--6666--7777--6666--555--7---9--9--9--9--9--4444--4455--0000--|

e||--------------------------------------------------------------------|
B||--------------------------------------------------------------------|
G||--------------------------------------------------------------------|
D||--------------9999--8888--777--9--11-11-11-11-11--9999999999999999--|
A||--4444--8888--7777--6666--555--7---9--9--9--9--9--9999999999999999--|
E||--2222--6666--7777--6666--555--7---9--9--9--9--9--7777777777777777--|

GUITAR 2
e||---------------------------------------------------------------------------------|
B||---------------------------------------------------------------------------------|
G||--11-11-11-11--10-10-10-10--9-9-9-9--8-8-8-8--777-9-66666--88888888--7777--9999--|
D||---------------------------------------------------------------------------------|
A||---------------------------------------------------------------------------------|
E||---------------------------------------------------------------------------------|

e||---------------------------------------------------------------------------------------------|
B||--11-11-11-11--11-11-11-11--9-9-9-9--7-7-7-7--101010-9---------------------------------------|
G||--11-11-11-11--10-10-10-10--9-9-9-9--8-8-8-8---7-7-7-9-11-11-11-11---------------------------|
D||--------------------------------------------------------------------13-13-13-13-12-12-12-12--|
A||--------------------------------------------------------------------14-14-14-14-14-14-14-14--|
E||---------------------------------------------------------------------------------------------|

Outro
Every now and then...
e||----------------------------------------------------------------------------------------------|
B||----------------------------------------------------------------------------------------------|
G||----------------------------------------------------------------------------------------------|
D||------------9999--8888--777--9--11-11-11-11-11--777--9--11-11-11-11-11--777--9--11-11-11-11-11|
A||4444--8888--7777--6666--555--7---9--9--9--9--9--555--7---9--9--9--9--9--555--7---9--9--9--9--9|
E||2222--6666--7777--6666--555--7---9--9--9--9--9--555--7---9--9--9--9--9--555--7---9--9--9--9--9|

e|------------------------------------------|
B|------------------------------------------|
G|------------------------------------------|
D|------------------------------------------|
A|--99999999--77777777--66666666--55555555--|
E|--77777777--55555555--44444444--33333333--|


CHORUS
GUITAR 1 [repeat 4x's]
e|-------------------------------------------------------|
B|-------------------------------------------------------|
G|-------------------------------777-------999-------12--|
D|--111111--101010--999--888--7--777--777--999--999--12--|
A|---9-9-9---8-8-8--777--666--5--555--777--777--999--10--|
E|---9-9-9---8-8-8--777--666--5-------555-------777------|

e|-----------------------------------------------------------------------------|
B|-----------------------------------------------------------------------------|
G|--11-11-11-11-11-11-11-11-11-11-11-11-11--11-11-11-11-11-11-11-11-11-9-9-12--|
D|-----------------------------------------------------------------------------|
A|-----------------------------------------------------------------------------|
E|-----------------------------------------------------------------------------|

e|-----------------------------------------------------------------------------|
B|-----------------------------------------------------------------------------|
G|--11-11-11-11-11-11-11-11-11-11-11-11-11--11-11-11-11-11-11-11-11-11-9-9-16--|
D|-----------------------------------------------------------------------------|
A|-----------------------------------------------------------------------------|
E|-----------------------------------------------------------------------------|

e|-------------------------------------------------------------------------------|
B|-------------------------------------------------------------------------------|
G|--15-15-15-15-15-15-15-15-15-15-15-15-15--15-15-15-15-15-14-14-14-13-13-13-16--|
D|-------------------------------------------------------------------------------|
A|-------------------------------------------------------------------------------|
E|-------------------------------------------------------------------------------|

e|-----------------------------------------------------------------------------------|
B|-----------------------------------------------------------------------------------|
G|--15-15-15-15-15-15-15-15-15-15-15-15-15--15-15-15-15-15-14-14-14-13-13-13-16--15--|
D|-----------------------------------------------------------------------------------|
A|-----------------------------------------------------------------------------------|
E|-----------------------------------------------------------------------------------|



* Lyrics *

What would I do, lonely as you
Pleasure or pain I can't choose
What would I do, lonely as you
Pleasure or pain I can't choose

Wake up your dreaming, I can't stand your screaming
Drowning out these prayers, just some words without meaning
Spare all the preaching, my secret's worth keeping
No one understands like I do
Keep out of reach I'm your lead and a leashing
Hide behind these masks though they still see right through them

Every now and then, you're down and out my friend
Down and out again
Down and out again
Down and out again
But I'm down with you

One more time for the last time
One more time for release
One more time for the last time
Everyone wants to believe

Blame it on youth all these years I've been losing
Blame it on the past it's the last place I knew you
Blame all the children, they're raging and ruined
Blame it on the black and the blue

Every now and then, you're down and out my friend
Down and out again
Down and out again
Down and out again
But I'm down with you

One more time for the last time
One more time for release
One more time for the last time
Everyone wants to believe

Every now and then, you're down and out my friend
Down and out again
Down and out again
Down and out again
But I'm down with you

One more time for the last time
One more time for release
One more time for the last time
Everyone wants to believe

One more time for the last time
One more time for release
One more time for the last time
Everyone wants to believe

One more time for the last time
One more time for release
One more time for the very last time
Everyone wants to believe, alright
Tap to rate this tab
 
# A B C D E F G H I J K L M N O P Q R S T U V W X Y Z