Song name
# A B C D E F G H I J K L M N O P Q R S T U V W X Y Z

Foo Fighters - White Limo tab

Foos are back with a new amazing song!
And this is my tab version...it's my first tab,so go easy!

http://www.youtube.com/watch?v=ebJ2brErERQ&feature=player_embedded

MAIN RIFF

e|----------------------|---------------------------|
B|----------------------|---------------------------|
G|----------------------|---------------------------|
D|--9-9-10-9-10-9-10-9--|--9-9-10-9-10----------0-10|
A|--9-9--9-9--9-9--9-9--|--9-9--9-9--9----------0-10|
E|--7-7--7-7--7-7--7-7--|--7-7--7-7--7- 8-7-8-7-0-8 |


CHORUS:

e|-----------------------------|
B|-----------------------------|
g|---------7-7-77--------------|
D|--9-9-99-7-7-77-8-8-88-5-5-55|
A|--9-9-99-5-5-55-8-8-88-5-5-55|
E|--7-7-77--------6-6-66-3-3-33|

Next section uses the same chords but adds a little lead part

e|--------------------------------------|
B|--------------------------------------|
g|--------------------------------------|
D|--9-9-10-9-12-12-13-12-8-8-9-8-5-5-6-5|
A|--9-9------12-12--------8-8-----5-5---|
E|--7-7------10-10--------6-6-----3-3---|

On second run through of this riff you only play one G powerchord at the end and go back 
to the

e|------------|
B|------------|
g|------------|
Dl--------0-10|
Al--------0-10|
El8-7-8-7-0-8-|


I'm working on solo! If you want the tabs for the teaser of upcoming album or any other 
foo songs email me at legendssj2@hotmail.com!
Tap to rate this tab
 
# A B C D E F G H I J K L M N O P Q R S T U V W X Y Z