Foo Fighters - White Limo tab

Tabbed by: Chris R
Email: chrisrsfireblazn360@gmail.com

Tuning: Standard

Hi Ultimate Guitar. Just tabbing White Limo (or what sounds it to me) off the new 
Foo Fighters album :)
I hope these are right and help you out, please note I AM a drummer and not a guitarist 
haha. Feel free to give me feedback, I appreciate it.

RHYTHM
e|------------------------------------------------------------------------------|
B|------------------------------------------------------------------------------|
G|------------------------------------------------------------------------------|
D|99999999999------------10\----------------------------------------------------|
A|99999999999------------10\----------------------------------------------------|
E|77777777777-5-5-7-8-7-5-8\----------------------------------------------------|
| PM----------------------------------------------------------------------------|

Repeat as many times necessary

Lead

e|-----------------------------------------------------------------------------|
B|-----------------------------------------------------------------------------|
G|-----------------------------------------------------------------------------|
D|-----------------------------------10----------------------------------------|
A|--16--14--16--14 |x2|--------------10----------------------------------------|
E|--14--12--14--12-|x2|--5-5-7-8-7-5-8-----------------------------------------|


Riff 2 (Chorus)
e|-----------------------------------------------------------------------------|
B|-----------------------------------------------------------------------------|
G|-----------------------------------------------------------------------------|
D|9-9-9-999--12-12-12-121212--6-6-6-666--5-5-5-555-----------------------------|
A|9-9-9-777--12-12-12-121212--6-6-6-666--5-5-5-555-----------------------------|
E|7-7-7-777--10-10-10-101010--8-8-8-888--3-3-3-333-----------------------------|

e|-----------------------------------------------------------------------------|
B|-----------------------------------------------------------------------------|
G|-----------------------------------------------------------------------------|
D|9\-----12\-----6\-----5\-----------------------------------------------------|
A|9\-----12\-----6\-----5\-----------------------------------------------------|
E|7\-----10\-----8\-----3\-----------------------------------------------------|


Repeat as many times necessary

LEAD

D|-12p9---15p12---11p8--8p5 etc. etc.

OUTRO
e|---------------------------------------------------------------------------|
B|---------------------------------------------------------------------------|
G|---------------------------------------------------------------------------|
D|-------------10------------------------7-----------------------------------|
A|-------------10------------------------7-----------------------------------|
E|-5-5-7-8-7-5-8-5-5-7-8-7-5-8-5-5-7-8-7-5-----------------------------------|


Sound effects

Lead - Distortion + Mesa Boogie amp
Rhythm - HEAVY Distortion + chorus

************************************

| /   slide up
| \   slide down
| h   hammer-on
| p   pull-off
| ~   vibrato
| +   harmonic
| x   Mute note
| b   Bend
| pb  Pre-bend
| br  Bend release
| pbr Pre-bend release
| brb Bend release bend

************************************
Tap to rate this tab
 
# A B C D E F G H I J K L M N O P Q R S T U V W X Y Z