Foo Fighters - White Limo tab

Song: White Limo
Band: Foo Fighters
Album: Wasted Light (2011)

The other tabs here aren't bad, but if you tune down into Drop D, this song becomes a 
hell of a lot easier and much closer to what Dave/Chris/Pat
play if you watch them live and in the video. You can also play both guitar parts on 
only one guitar (except for the solo).

I'll add the lyrics once somebody figures them out. I have no clue. :3

Main Riff:
   x x    x    x x    x    x x x x x x x x    x    x x    x
e|--------------------------------------------------------------------------|
B|--------------------------------------------------------------------------|
G|--------------------------------------------------------------------------|
D|-9-9-13-9-10-9-9-13-9-10-9-8-8-9-9-9-9-9-13-9-10-9-9-13-9-7-9-9-10-9-7-10\|
A|-9-9-9--9-9--9-9-9--9-9--9-8-8-9-9-9-9-9-9--9-9--9-9-9--9-7-9-9-10-9-7-10\|
D|-9-9-9--9-9--9-9-9--9-9--9-8-8-9-9-9-9-9-9--9-9--9-9-9--9-7-9-9-10-9-7-10\|
     x    x    x x    x    x x x x x x x x    x    x x    x
e|--------------------------------------------------------------------------|
B|--------------------------------------------------------------------------|
G|--------------------------------------------------------------------------|
D|-\-9-13-9-10-9-9-13-9-10-9-8-8-9-9-9-9-9-13-9-10-9-9-13-9-7-9-9-10-9-7-12\|
A|-\-9-9--9-9--9-9-9--9-9--9-8-8-9-9-9-9-9-9--9-9--9-9-9--9-7-9-9-10-9-7-12\|
D|-\-9-9--9-9--9-9-9--9-9--9-8-8-9-9-9-9-9-9--9-9--9-9-9--9-7-9-9-10-9-7-12\|

Play 3 more times, without muting. Last time, end on:

Chorus:
"It has somethin' that..."
e|--------------------------------------------------------------------------|
B|--------------------------------------------------------------------------|
G|--------------------------------------------------------------------------|
D|-9---9-9-9-9-9-9-12--12-12-12-12-12-12-8--8-8-8-8-8-8-5--5-5-5-5-5-5------|
A|-9---9-9-9-9-9-9-12--12-12-12-12-12-12-8--8-8-8-8-8-8-5--5-5-5-5-5-5------|
D|-9---9-9-9-9-9-9-12--12-12-12-12-12-12-8--8-8-8-8-8-8-5--5-5-5-5-5-5------|

e|--------------------------------------------------------------------------|
B|--------------------------------------------------------------------------|
G|--------------------------------------------------------------------------|
D|-9---9-9-9-9-9-9-12--12-12-12-12-12-12-8--8-8-8-8-8-8-5--5-5-5-5-5-5------|
A|-9---9-9-9-9-9-9-12--12-12-12-12-12-12-8--8-8-8-8-8-8-5--5-5-5-5-5-5------|
D|-9---9-9-9-9-9-9-12--12-12-12-12-12-12-8--8-8-8-8-8-8-5--5-5-5-5-5-5------|

Chorus 2:
"Go! Go!"
e|--------------------------------------------------------------------------|
B|--------------------------------------------------------------------------|
G|--------------------------------------------------------------------------|
D|-9---9-13.--9.---12--12-16.--12.---8--8-12.--8.---5--5-9.--5.-------------|
A|-9---9-----------12--12------------8--8-----------5--5--------------------|
D|-9---9-----------12--12------------8--8-----------5--5--------------------|

e|--------------------------------------------------------------------------|
B|--------------------------------------------------------------------------|
G|--------------------------------------------------------------------------|
D|-9---9-13.--9.---12--12-16.--12.---7--7-11.--7.---14--7-9-9-10-9-7--------|
A|-9---9-----------12--12------------7--7-----------14--7-9-9-10-9-7--------|
D|-9---9-----------12--12------------7--7-----------14--7-9-9-10-9-7--------|

Main Riff x3

Chorus

Chorus 2 Extended:

e|--------------------------------------------------------------------------|
B|--------------------------------------------------------------------------|
G|--------------------------------------------------------------------------|
D|-9---9-13.--9.---12--12-16.--12.---8--8-12.--8.---5--5-9.--5.-------------|
A|-9---9-----------12--12------------8--8-----------5--5--------------------|
D|-9---9-----------12--12------------8--8-----------5--5--------------------|

e|--------------------------------------------------------------------------|
B|--------------------------------------------------------------------------|
G|--------------------------------------------------------------------------|
D|-9---9-13.--9.---12--12-16.--12.---7--7-11.--7.---2--2-6.--2.-------------|
A|-9---9-----------12--12------------7--7-----------2--2--------------------|
D|-9---9-----------12--12------------7--7-----------2--2--------------------|

e|--------------------------------------------------------------------------|
B|--------------------------------------------------------------------------|
G|--------------------------------------------------------------------------|
D|-9---9-13.--9.---12--12-16.--12.---8--8-12.--8.---5--5-9.--5.-------------|
A|-9---9-----------12--12------------8--8-----------5--5--------------------|
D|-9---9-----------12--12------------8--8-----------5--5--------------------|

e|--------------------------------------------------------------------------|
B|--------------------------------------------------------------------------|
G|--------------------------------------------------------------------------|
D|-9---9-13.--9.---12--12-16.--12.---7--7-11.--7.---14--7-9-9-10-9-7--------|
A|-9---9-----------12--12------------7--7-----------14--7-9-9-10-9-7--------|
D|-9---9-----------12--12------------7--7-----------14--7-9-9-10-9-7--------|

Main Riff x1 (End on:)

Solo Guitar 1:

e|--------------------------------------------------------------------------|
B|--------------------------------------------------------------------------|
G|--------------------------------------------------------------------------|
D|-7--7-7-7-7-7-7-2--2-2-2-2-2-2-9--9-9-9-9-9-9-----------------------------|
A|-7--7-7-7-7-7-7-2--2-2-2-2-2-2-9--9-9-9-9-9-9-----------------------------|
D|-7--7-7-7-7-7-7-2--2-2-2-2-2-2-9--9-9-9-9-9-9-----------------------------| x3

Solo Guitar 2:

e|--------------------------------------------------------------------------|
B|---------------------------------7--7--7--7--7--7--7----------------------|
G|---------------------------------9b-9b-9b-9b-9b-9b-9b---------------------|
D|-7--7-7-7-7-7-7-2--2-2-2-2-2-2-9------------------------------------------|
A|-7--7-7-7-7-7-7-2--2-2-2-2-2-2-9------------------------------------------|
D|-7--7-7-7-7-7-7-2--2-2-2-2-2-2-9------------------------------------------|

e|--------------------------------------------------------------------------|
B|---------------------------------7--7-7--9--9---11-11---------------------|
G|---------------------------------9b-9b9b-11b11b-13b13b--------------------|
D|-7--7-7-7-7-7-7-2--2-2-2-2-2-2-9------------------------------------------|
A|-7--7-7-7-7-7-7-2--2-2-2-2-2-2-9------------------------------------------|
D|-7--7-7-7-7-7-7-2--2-2-2-2-2-2-9------------------------------------------|

e|--------------------------------------------------------------------------|
B|--------------------------------------------------------------------------|
G|----------------------------------------(DON'T KNOW THIS------------------|
D|-7--7-7-7-7-7-7-2--2-2-2-2-2-2-9----------PART YET)-----------------------|
A|-7--7-7-7-7-7-7-2--2-2-2-2-2-2-9------------------------------------------|
D|-7--7-7-7-7-7-7-2--2-2-2-2-2-2-9------------------------------------------|

e|--------------------------------------------------------------------------|
B|---------------------------------7--7--7--7--7--7--7----------------------|
G|---------------------------------9b-9b-9b-9b-9b-9b-9b---------------------|
D|-7--7-7-7-7-7-7-2--2-2-2-2-2-2-9-----------------------7-9-9-10-9-7-10\---|
A|-7--7-7-7-7-7-7-2--2-2-2-2-2-2-9-----------------------7-9-9-10-9-7-10\---|
D|-7--7-7-7-7-7-7-2--2-2-2-2-2-2-9-----------------------7-9-9-10-9-7-10\---|

End:
   x x    x    x x    x    x x x x x x x x    x    x x    x
e|--------------------------------------------------------------------------|
B|--------------------------------------------------------------------------|
G|--------------------------------------------------------------------------|
D|-9-9-13-9-10-9-9-13-9-10-9-8-8-9-9-9-9-9-13-9-10-9-9-13-9-7-9-9-10-9-7-12\|
A|-9-9-9--9-9--9-9-9--9-9--9-8-8-9-9-9-9-9-9--9-9--9-9-9--9-7-9-9-10-9-7-12\|
D|-9-9-9--9-9--9-9-9--9-9--9-8-8-9-9-9-9-9-9--9-9--9-9-9--9-7-9-9-10-9-7-12\|
     x    x    x x    x    x x x x x x x x    x    x x
e|--------------------------------------------------------------------------|
B|--------------------------------------------------------------------------|
G|--------------------------------------------------------------------------|
D|-\-9-13-9-10-9-9-13-9-10-9-8-8-9-9-9-9-9-13-9-10-9-9-13-------------------|
A|-\-9-9--9-9--9-9-9--9-9--9-8-8-9-9-9-9-9-9--9-9--9-9-9--------------------|
D|-\-9-9--9-9--9-9-9--9-9--9-8-8-9-9-9-9-9-9--9-9--9-9-9--------------------|

e|--------------------------------------------------------------------------|
B|--------------------------------------------------------------------------|
G|--------------------------------------------------------------------------|
D|-10--99999999999999999999999-7-9-9-10-9-7-12\-----------------------------|
A|-10--99999999999999999999999-7-9-9-10-9-7-12\-----------------------------|
D|-10--99999999999999999999999-7-9-9-10-9-7-12\-----------------------------|

e|--------------------------------------------------------------------------|
B|--------------------------------------------------------------------------|
G|--------------------------------------------------------------------------|
D|-\--99999999999999999999999-7-9-9-10-9-7-9--7-9-9-10-9-7-9--7-9-9-10-9-7-9|
A|-\--99999999999999999999999-7-9-9-10-9-7-9--7-9-9-10-9-7-9--7-9-9-10-9-7-9|
D|-\--99999999999999999999999-7-9-9-10-9-7-9--7-9-9-10-9-7-9--7-9-9-10-9-7-9|

e|--------------------------------------------------------------------------|
B|--------------------------------------------------------------------------|
G|--------------------------------------------------------------------------|
D|-7-9-9-10-9-7~------------------------------------------------------------|
A|-7-9-9-10-9-7~------------------------------------------------------------|
D|-7-9-9-10-9-7~------------------------------------------------------------|

Legend
x = Palm Mute
\ = Slide Down
b = Bend
~ - Let Ring/Whammy
Tap to rate this tab
 
# A B C D E F G H I J K L M N O P Q R S T U V W X Y Z