Song name
# A B C D E F G H I J K L M N O P Q R S T U V W X Y Z

Foo Fighters - White Limo tab

Band:	Foo Fighters
Song:	White Limo
Tabber:	Ruairi Coleman

Right folks first note;
This song is Epic =)

Right so took me awhile to get this tabbed but its straight forward enough. The whole tab should
probably be spread out over 3 or 4 guitars but i think you can get away playing most of it with 2.
havent had a chance to work out much of the second guitar plus cant figure out the 
lead licks so please comments &
help would be greatly appreciated =)

Anyway i think this is a good starting point for people to work off. Have fun an 
comment on any improvements =D

 Intro/Verse
 Repeat x4
E|-------||----------------------------------------|-------------------------------------|
B|-------||----------------------------------------|-------------------------------------|
G|-------||----------------------------------------|-------------------------------------|
D|-------||--13---10-----13---10-------------------|---13---10-----13--------------------|
A|--9-9--||--9--9-9--9-9-9--9-9--9-9-9-7-9-9-9-9---|---9--9-9--9-9-9--7-7-9--10-9-7-10---|
D|--9-9--||--9--9-9--9-9-9--9-9--9-9-9-7-9-9-9-9---|---9--9-9--9-9-9--7-7-9--10-9-7-10---|
            1  e &  a 2 e  & a  3 e & a 4 e & a        1  e &  a 2 e  & a 3  e  & a 4 

                                           | 1. 2. 3.                            |
E|-----------------------------------------|-------------------------------------||
B|-----------------------------------------|-------------------------------------||
G|-----------------------------------------|-------------------------------------||
D|---13---10-----13---10-------------------|---13---10-----13---------------10---||
A|---9--9-9--9-9-9--9-9--9-9-9-7-9-9-9-9---|---9--9-9--9-9-9--7-7-9--10-9-7-8----||
D|---9--9-9--9-9-9--9-9--9-9-9-7-9-9-9-9---|---9--9-9--9-9-9--7-7-9--10-9-7------||
     1  e &  a 2 e  & a  3 e & a 4 e & a       1  e &  a 2 e  & a 3  e  & a 4 
   

On the 4th repeat the last bar changes to this v to lead into the chorus

 | 4.                                  |
E|-------------------------------------|
B|-------------------------------------|
G|-------------------------------------|
D|---13---10-----13--------------------|
A|---9--9-9--9-9-9--7-9--10-10-9-7-9---|
D|---9--9-9--9-9-9--7-9--10-10-9-7-9---|
     1  e &  a 2 e  & a  3  e  & a 4 

__________________________________________________________________________________________
 Chorus
 Repeat x2 
E|--------------------------------------------------|
B|--------------------------------------------------|
G|--------------------------------------------------|
D|--------------------------------------------------|
A|---9-9-9-9-9/12-12-12-12-12\8-8-8-8-8\5-5-5-5-5---|
D|---9-9-9-9-9/12-12-12-12-12\8-8-8-8-8\5-5-5-5-5---|

then v    

E|---------------------------|-----------------------|
B|---------------------------|-----------------------|
G|-------8~---------11~------|-------7~-------4~-----|
D|---------9~----------12~---|---------8~-------5~---|
A|---9-9------12-12----------|---8-8------5-5--------|
D|---9-9------12-12----------|---8-8------5-5--------|

E|---------------------------|--------------------------------|
B|---------------------------|--------------------------------|
G|-------8~---------11~------|-------7~-----------------------|
D|---------9~----------12~---|---------8~---------------------|
A|---9-9------12-12----------|---8-8------2-2-7-9-10-9-7-10---|
D|---9-9------12-12----------|---8-8------2-2-7-9-10-9-7-10---|

__________________________________________________________________________________________

 Verse 2
 Repeat x3
E|-----------------------------------------|-------------------------------------|
B|-----------------------------------------|-------------------------------------|
G|-----------------------------------------|-------------------------------------|
D|---13---10-----13---10-------------------|---13---10-----13---------------10---|
A|---9--9-9--9-9-9--9-9--9-9-9-7-9-9-9-9---|---9--9-9--9-9-9--7-7-9--10-9-7-8----|
D|---9--9-9--9-9-9--9-9--9-9-9-7-9-9-9-9---|---9--9-9--9-9-9--7-7-9--10-9-7------|

                                           | 1. 2.                               |
E|-----------------------------------------|-------------------------------------|
B|-----------------------------------------|-------------------------------------|
G|-----------------------------------------|-------------------------------------|
D|---13---10-----13---10-------------------|---13---10-----13--------------------|
A|---9--9-9--9-9-9--9-9--9-9-9-7-9-9-9-9---|---9--9-9--9-9-9--7-7-9--10-9-7-10---|
D|---9--9-9--9-9-9--9-9--9-9-9-7-9-9-9-9---|---9--9-9--9-9-9--7-7-9--10-9-7-10---|
       
 | 3.                                  |
E|-------------------------------------|
B|-------------------------------------|
G|-------------------------------------|
D|---13---10-----13--------------------|
A|---9--9-9--9-9-9--7-9--10-10-9-7-9---|
D|---9--9-9--9-9-9--7-9--10-10-9-7-9---|

__________________________________________________________________________________________

 Chorus 2
 Repeat x2 
E|--------------------------------------------------|
B|--------------------------------------------------|
G|--------------------------------------------------|
D|--------------------------------------------------|
A|---9-9-9-9-9/12-12-12-12-12\8-8-8-8-8\5-5-5-5-5---|
D|---9-9-9-9-9/12-12-12-12-12\8-8-8-8-8\5-5-5-5-5---|

 then v    
 Repeat x3
E|---------------------------|-----------------------|
B|---------------------------|-----------------------|
G|-------8~---------11~------|-------7~-------4~-----|
D|---------9~----------12~---|---------8~-------5~---|
A|---9-9------12-12----------|---8-8------5-5--------|
D|---9-9------12-12----------|---8-8------5-5--------|

 Then v

E|---------------------------|--------------------------------|
B|---------------------------|--------------------------------|
G|-------8~---------11~------|-------7~-----------------------|
D|---------9~----------12~---|---------8~---------------------|
A|---9-9------12-12----------|---8-8------2-2-7-9-10-9-7-10---|
D|---9-9------12-12----------|---8-8------2-2-7-9-10-9-7-10---|
__________________________________________________________________________________________

 Verse 3
E|-----------------------------------------|-------------------------------------|
B|-----------------------------------------|-------------------------------------|
G|-----------------------------------------|-------------------------------------|
D|---13---10-----13---10-------------------|---13---10-----13---------------10---|
A|---9--9-9--9-9-9--9-9--9-9-9-7-9-9-9-9---|---9--9-9--9-9-9--7-7-9--10-9-7-8----|
D|---9--9-9--9-9-9--9-9--9-9-9-7-9-9-9-9---|---9--9-9--9-9-9--7-7-9--10-9-7------|

                                           
E|-----------------------------------------|------------------------------------|
B|-----------------------------------------|------------------------------------|
G|-----------------------------------------|--------------------------------2---|
D|---13---10-----13---10-------------------|---13---10-----13---------------2---|
A|---9--9-9--9-9-9--9-9--9-9-9-7-9-9-9-9---|---9--9-9--9-9-9--7-7-9--10-9-7-0---|
D|---9--9-9--9-9-9--9-9--9-9-9-7-9-9-9-9---|---9--9-9--9-9-9--7-7-9--10-9-7-----|

__________________________________________________________________________________________
 Bridge 
 Repeat x3
E|--------------------------------------------------------------|
B|--------------------------------------------------------------|
G|---2-2-2-2----------------------------------------------------|
D|---2-2-2-2----------------------------------------------------|
A|---0-0-0-0-6\2--2-2-2-2-2-2/9-9-9-9-9-9-9-9-9-9-9-9-9-9-9-9---|
D|-----------6\2--2-2-2-2-2-2/9-9-9-9-9-9-9-9-9-9-9-9-9-9-9-9---|

 Then play this v the 4th

E|---------------------------------------------|--------------------|
B|---------------------------------------------|--------------------|
G|---2-2-2-2-----------------------------------|--------------------|
D|---2-2-2-2-----------------------------------|--------------------|
A|---0-0-0-0-6\2--2-2-2-2-2-2/9-9-9-9-9-9-9-9--|--7-7-9-10-9-7-10---|
D|-----------6\2--2-2-2-2-2-2/9-9-9-9-9-9-9-9--|--7-7-9-10-9-7-10---|

  Guitar 2 Fills

 Sorry folks could only work ou the 2 & 4 fill, any help on this would
 be greatly appreciated 

 Fill 1
E|-----------------------------------------|
B|-----------------------------------------|
G|-----------------------------------------|
D|-----------------------------------------|
A|-----------------------------------------|
D|-----------------------------------------|

 Fill 2
E|-----------------------------------------|
B|---7--7----9---9-----10--10----12--------|
G|---9b-9b---11b-11b---12b-12b---14b-14r---|
D|-----------------------------------------|
A|-----------------------------------------|
D|-----------------------------------------|

 Fill 3
E|-----------------------------------------|
B|-----------------------------------------|
G|-----------------------------------------|
D|-----------------------------------------|
A|-----------------------------------------|
D|-----------------------------------------|

Fill 4
E|----------------------------------------|
B|---12-12-12-12-12-12--------------------|
G|---11-11-11-11-11-11--------------------|
D|---9--9--9--9--9--9---------------------|
A|---9--9--9--9--9--9-----7-9-10-9-7-10---|
D|---9--9--9--9--9--9-----7-9-10-9-7-10---|
     1  e  &  a  2  e  &  a 3 e  & a 4
__________________________________________________________________________________________

 Verse 4/Outro
E|-----------------------------------------|-------------------------------------|
B|-----------------------------------------|-------------------------------------|
G|-----------------------------------------|-------------------------------------|
D|---13---10-----13---10-------------------|---13---10-----13---------------10---|
A|---9--9-9--9-9-9--9-9--9-9-9-7-9-9-9-9---|---9--9-9--9-9-9--7-7-9--10-9-7-8----|
D|---9--9-9--9-9-9--9-9--9-9-9-7-9-9-9-9---|---9--9-9--9-9-9--7-7-9--10-9-7------|

                                           
E|-----------------------------------------|-------------------------------------|
B|-----------------------------------------|-------------------------------------|
G|-----------------------------------------|-------------------------------------|
D|---13---10-----13---10-------------------|---13---10-----13--------------------|
A|---9--9-9--9-9-9--9-9--9-9-9-7-9-9-9-9---|---9--9-9--9-9-9--|-p-a-u-s-e-|-10---|
D|---9--9-9--9-9-9--9-9--9-9-9-7-9-9-9-9---|---9--9-9--9-9-9----------------10---|
                                               1  e &  a 2 e  & a 3  e  & a 4 

E|-----------------------------------------|-------------------------------------|
B|-----------------------------------------|-------------------------------------|
G|-----------------------------------------|-------------------------------------|
D|---13---10-----13---10-------------------|---13---10-----13---------------10---|
A|---9--9-9--9-9-9--9-9--9-9-9-7-9-9-9-9---|---9--9-9--9-9-9--7-7-9--10-9-7-8----|
D|---9--9-9--9-9-9--9-9--9-9-9-7-9-9-9-9---|---9--9-9--9-9-9--7-7-9--10-9-7------|

                                           
E|-----------------------------------------|------------------|---------------|----------------|
B|-----------------------------------------|------------------|---------------|----------------|
G|-----------------------------------------|------------------|----Repeat x3--|----------------|
D|---13---10-----13---10-------------------|---13---10-----13-|---------------|----------------| 
A|---9--9-9--9-9-9--9-9--9-9-9-7-9-9-9-9---|---9--9-9--9-9-9--|-0-2-3-3-2-0-2-|-0-2-3-3-2-5w---|
D|---9--9-9--9-9-9--9-9--9-9-9-7-9-9-9-9---|---9--9-9--9-9-9--|---------------|-----------5w---|
w = whammy bar
Tap to rate this tab
 
# A B C D E F G H I J K L M N O P Q R S T U V W X Y Z