Song name
# A B C D E F G H I J K L M N O P Q R S T U V W X Y Z

Foo Fighters - These Days tab

-------------------------------------------------------------------------------
			     These Days - Foo Fighters
-------------------------------------------------------------------------------
Tabbed by: Dakota
Email: dakota.tyler@yahoo.com

Tuning: Standard

Awesome new song from the Foos off their new album Wasting Light.
All of the parts are here, you just have to listen to the song to figure out the rhythm.
e|---------------------------------------------------------------------------|
B|---------------------------------------------------------------------------|
G|---------------------------------------------------------------------------|
D|-------11-------11-----------0---------0-----------------------------------|
A|----12-------12-----------12--------12-------------------------------------|
E|--0--------0----------10---------10----------------------------------------|

e|---------------------------------------------------------------------------|
B|---------------------------------------------------------------------------|
G|-------------0-------------------------------------------------------------|
D|-----2---------2--------------------0--------------------------------------|
A|--3-----3--------3----------2---------2------------------------------------|
E|-------------------------3-----3--------3----------------------------------|

e|---------------------------------------------------------------------------|
B|---------------------------------------------------------------------------|
G|---------------0-----------------------------------------------------------|
D|--------4--------4-------------------------0-------------------------------|
A|-----5-----5-------5---------------4---------4-----------------------------|
E|-------------------------------5------5--------5---------------------------|

e|-----0-----------3---------3---------2-------------------------------------|
B|-----2-----------3---------3---------3-------------------------------------|
G|-----2-----------0---------0---------2-------------------------------------|
D|-----2-----------2---------2---------0-------------------------------------|
A|-----0-----------2---------3---------0-------------------------------------|
E|-----0-----------0---------0---------0-------------------------------------|

e|------5-------------5------------------------------------------------------|
B|------5-------------5------------------------------------------------------|
G|------6-------------6------------------------------------------------------|
D|------7-------------5------------------------------------------------------|
A|------7-------------5------------------------------------------------------|
E|------5-------------5------------------------------------------------------|

************************************

| /   slide up
| \   slide down
| h   hammer-on
| p   pull-off
| ~   vibrato
| +   harmonic
| x   Mute note
| b   Bend
| pb  Pre-bend
| br  Bend release
| pbr Pre-bend release
| brb Bend release bend

************************************
Tap to rate this tab
 
# A B C D E F G H I J K L M N O P Q R S T U V W X Y Z