Foo Fighters - Rope tab

Hi, this is my first tab, hope you like it. All credit goes to 
http://www.songsterr.com/a/wsa/foo-fighters-rope-guitar-tab-s76321t2 , I just 
turned it into a tab for you :)

Rope

Standard Tuning

Intro
e|-0--7--3--3-|
B|-3--10-6--6-|
G|-2--9--6--5-|
D|------------|
A|------------|
E|------------|

e|-------------------------------------------------------|
B|------------10-10-10-10-10--6-6-6-6-6--6-6-6-----------|
G|------------9--9--9--9--9---5-5-5-5-5--5-5-5-----------|
D|-7-7-7-9-7--7--7--7--9--7---3-3-3-5-3--3-3-3---0-2-0---|
A|-5-5-5-5-5----------------------------------0-2------0-|
E|-------------------------------------------------------|

e|------------------------------------------------- -----------------------|
B|------------------------------------------------- -----------------------|
G|------------------------------------------------- -----------------------|
D|-------------------4--4-4-4-4-7--4--------------- -----------------------|
A|-2--2-2-2-2-2-5--2-----------------5--5-5-5-5-3-5 -5--5-5-5-5-3-5--5-0~--|
E|------------------------------------------------- -----------------------|

e|------------------------------------------------- ------------------------|
B|------------------------------------------------- ------------------------|
G|------------------------------------------------- ------------------------|
D|-------------------4--4-4-4-4-7--4--------------- ----------------0-2-0---|
A|-2--2-2-2-2-2-5--2-----------------3--3-3-3-3-5-3 -3--3-3-3-3-0-2-------0-|
E|------------------------------------------------- ------------------------|

Verse
e|-0-0-0-0-0---7--7--7--7--7--3-3-3-3-3--3-3-3-3-3----|
B|-3-3-3-3-3--10-10-10-10-10--6-6-6-6-6--6-6-6-6-6----|
G|-2-2-2-2-2---9--9--9--9--9--5-5-5-5-5--5-5-5-5-5----|
D|-0-0-0-2-0---7--7--7--9--7--3-3-3-5-3--3-3-3-5-3----|
A|-------------------------------------------------0~-|
E|----------------------------------------------------|

e|-0-0-0-0-0---7--7--7--7--7--3-3-3-3-3--3-3-3-3-3-------------|
B|-3-3-3-3-3--10-10-10-10-10--6-6-6-6-6--6-6-6-6-6-------------|
G|-2-2-2-2-2---9--9--9--9--9--5-5-5-5-5--5-5-5-5-5-------------|
D|-0-0-0-2-0---7--7--7--9--7--3-3-3-5-3--3-3-3-5-3-----0-2-0---|
A|-------------------------------------------------0-2-------0-|
E|-------------------------------------------------------------|

e|------------------------------------------------- -----------------------|
B|------------------------------------------------- -----------------------|
G|------------------------------------------------- -----------------------|
D|-------------------4--4-4-4-4-7--4--------------- -----------------------|
A|-2--2-2-2-2-2-5--2-----------------5--5-5-5-5-3-5 -5--5-5-5-5-3-5--5-0~--|
E|------------------------------------------------- -----------------------|

e|------------------------------------------------- ------------------------|
B|------------------------------------------------- ------------------------|
G|------------------------------------------------- ------------------------|
D|-------------------4--4-4-4-4-7--4--------------- ----------------0-2-0---|
A|-2--2-2-2-2-2-5--2-----------------3--3-3-3-3-5-3 -3--3-3-3-3-0-2-------0-|
E|------------------------------------------------- ------------------------|

Chorus
e|-----3------- ----0------ ----0------ ----------------|
B|-------3----- ------0---- ------3---- ----3-2-0-------|
G|---0------0-- --------0-- 4-4-----4-- 2-2-------2-----|
D|---0--------- 2-2-------- 4-4-------- 2-2---------2---|
A|-2-2--------- 2-2-------- 2-2-------- 0-0-------------|
E|-3-3--------- 0-0-------- ----------- ----------------|  x3

e|----------------- ---------------- ---------------- ----------------|
B|----------------- ---------------- ---------------- ----------------|
G|----------------- ---------------- ---------------- ----------------|
D|----------------- ---------------- ---------------- ----------------|
A|-5---5-5---5-5-5- 7---7-7---7-7-7- 7---7-7---7-7-7- 9---9-9---9-9-9-|
E|-3---3-3---3-3-3- 4---4-4---4-4-4- 5---5-5---5-5-5- 6---6-6---6-6-6-|

(this bit is played underneath something else, but I can't figure out what)
e|------------------------------------------------- -----------------------|
B|------------------------------------------------- -----------------------|
G|------------------------------------------------- -----------------------|
D|-------------------4--4-4-4-4-7--4--------------- -----------------------|
A|-2--2-2-2-2-2-5--2-----------------5--5-5-5-5-3-5 -5--5-5-5-5-3-5--5-0~--|
E|------------------------------------------------- -----------------------|

e|----------------------------------- ---------------- -----------------------|
B|----------------------------------- ---------------- -----------------------|
G|----------------------------------- ---------------- -----------------------|
D|-------------------4--4-4-4-4-7--4- 3--3-3-3-3-5--3- 3--3-3-3-3-----0-2-0---|
A|-2--2-2-2-2-2-5--2----------------- ---------------- -----------0-2-------0-|
E|----------------------------------- ---------------- -----------------------|

Verse 2
e|-0-0-0-0-0---7--7--7--7--7--3-3-3-3-3--3-3-3-3-3----|
B|-3-3-3-3-3--10-10-10-10-10--6-6-6-6-6--6-6-6-6-6----|
G|-2-2-2-2-2---9--9--9--9--9--5-5-5-5-5--5-5-5-5-5----|
D|-0-0-0-2-0---7--7--7--9--7--3-3-3-5-3--3-3-3-5-3----|
A|-------------------------------------------------0~-|
E|----------------------------------------------------|

e|-0-0-0-0-0---7--7--7--7--7--3-3-3-3-3--3-3-3-3-3-------------|
B|-3-3-3-3-3--10-10-10-10-10--6-6-6-6-6--6-6-6-6-6-------------|
G|-2-2-2-2-2---9--9--9--9--9--5-5-5-5-5--5-5-5-5-5-------------|
D|-0-0-0-2-0---7--7--7--9--7--3-3-3-5-3--3-3-3-5-3-----0-2-0---|
A|-------------------------------------------------0-2-------0-|
E|-------------------------------------------------------------|

e|------------------------------------------------- -----------------------|
B|------------------------------------------------- -----------------------|
G|------------------------------------------------- -----------------------|
D|-------------------4--4-4-4-4-7--4--------------- -----------------------|
A|-2--2-2-2-2-2-5--2-----------------5--5-5-5-5-3-5 -5--5-5-5-5-3-5--5-0~--|
E|------------------------------------------------- -----------------------|

e|------------------------------------------------- ------------------------|
B|------------------------------------------------- ------------------------|
G|------------------------------------------------- ------------------------|
D|-------------------4--4-4-4-4-7--4--------------- ----------------0-2-0---|
A|-2--2-2-2-2-2-5--2-----------------3--3-3-3-3-5-3 -3--3-3-3-3-0-2-------0-|
E|------------------------------------------------- ------------------------|

Chorus 2
e|-----3------- ----0------ ----0------ ----------------|
B|-------3----- ------0---- ------3---- ----3-2-0-------|
G|---0------0-- --------0-- 4-4-----4-- 2-2-------2-----|
D|---0--------- 2-2-------- 4-4-------- 2-2---------2---|
A|-2-2--------- 2-2-------- 2-2-------- 0-0-------------|
E|-3-3--------- 0-0-------- ----------- ----------------|  x3

e|----------------- ---------------- ---------------- ----------------|
B|----------------- ---------------- ---------------- ----------------|
G|----------------- ---------------- ---------------- ----------------|
D|----------------- ---------------- ---------------- ----------------|
A|-5---5-5---5-5-5- 7---7-7---7-7-7- 7---7-7---7-7-7- 9---9-9---9-9-9-|
E|-3---3-3---3-3-3- 4---4-4---4-4-4- 5---5-5---5-5-5- 6---6-6---6-6-6-|

Breakdown/solo
e|--------------|
B|--------------|
G|--------------|
D|-------7---9--|
A|-9-7-9-5---7--|
E|-7-5-7--------| x4

e|----
B|----
G|----
D|----
A|-12~
E|----


e|----------------------------|
B|----------------------------|
G|----------------------------|
D|-------7---9----------------|
A|-9-7-9-5---7--5--5--7---2-2-|
E|-7-5-7--------3--3--5---0-0-| x2

e|----------- --------------- ---------- ------16----15-|
B|-------15~- ------15------- ------15~- ---------15----|
G|-13-16----- 13-16----13-16- 13-16----- 13-16----------|
D|----------- --------------- ---------- ---------------|
A|----------- --------------- ---------- ---------------|
E|----------- --------------- ---------- ---------------|

(very fast)
e|-------------------------------------------------|
B|-------------------------------------------------|
G|-14-11----11-14-11----11-14-11----11-14-11----11-|
D|-------14----------14----------14----------14----|
A|-------------------------------------------------|
E|-------------------------------------------------|

e|---------------------------------------|
B|-12-10----10---------------------------|
G|-------11----11-9-11-9-7-9-7---7-------|
D|-----------------------------9---9-7-9-|
A|---------------------------------------|
E|---------------------------------------|

e|------------------------------------------------------|
B|------------------------------------------------------|
G|------------------------------9-7---7-----------------|
D|-9-7---7--------------------------9---9-7-9-----7---9-|
A|-----9---9-7-9-7----7-----------------------7-9---9---|
E|-----------------10---10-7-10-------------------------|

e|-10-7----7----------7~ 12-10----10-------10~ -------------|
B|------10---10-7-10---- ------12----12-10---- 15-(x28)-----|
G|---------------------- --------------------- 13-(x28)-----|
D|---------------------- --------------------- 12-(x28)-----|
A|---------------------- --------------------- ---------12~-|
E|---------------------- --------------------- -------------|

Chorus 3
e|-----3------- ----0------ ----0------ ----------------|
B|-------3----- ------0---- ------3---- ----3-2-0-------|
G|---0------0-- --------0-- 4-4-----4-- 2-2-------2-----|
D|---0--------- 2-2-------- 4-4-------- 2-2---------2---|
A|-2-2--------- 2-2-------- 2-2-------- 0-0-------------|
E|-3-3--------- 0-0-------- ----------- ----------------|  x4

e|----------------- ---------------- ---------------- ----------------|
B|----------------- ---------------- ---------------- ----------------|
G|----------------- ---------------- ---------------- ----------------|
D|----------------- ---------------- ---------------- ----------------|
A|-5---5-5---5-5-5- 7---7-7---7-7-7- 7---7-7---7-7-7- 9---9-9---9-9-9-|
E|-3---3-3---3-3-3- 4---4-4---4-4-4- 5---5-5---5-5-5- 6---6-6---6-6-6-|

e|-0----7---3---3-------------|
B|-3---10---6---6-------------|
G|-2----9---5---5-------------|
D|--------------------0-2-0---|
A|----------------0-2-------0-|
E|----------------------------|

e|----------------------------------- ---------------- -----------------------|
B|----------------------------------- ---------------- -----------------------|
G|----------------------------------- ---------------- -----------------------|
D|-------------------4--4-4-4-4-7--4- 3--3-3-3-3-5--3- 3--3-3-3-3-----0-2-0---|
A|-2--2-2-2-2-2-5--2----------------- ---------------- -----------0-2-------0-|
E|----------------------------------- ---------------- -----------------------|
Tap to rate this tab
 
# A B C D E F G H I J K L M N O P Q R S T U V W X Y Z