Song name
# A B C D E F G H I J K L M N O P Q R S T U V W X Y Z

Foo Fighters - These Days tab

-------------------------------------------------------------------------------
	              These Days - Foo Fighters
-------------------------------------------------------------------------------
Tabbed by: joey_c_13

Tuning: Standard (EADGBe)


Verse
E|------------------------------------------------|
B|------------------------------------------------|
G|------------------------------------------------|
D|----------11----------11----------0----------0--|
A|------12----------12------12---------12---------|
E|--12----------12--------------10---------10-----|


Pre-chorus and bridge (x3 for bridge)
E|--------------------------------------------------------------------------------------|
B|--------------------------------------------------------------------------------------|
G|-----------0-----------------------------------------0--------------------------------|
D|-----2--------2-----2-----------0--------------4--------4-----4-----------0-----------|
A|--3-----3--------3--------2--------2-----2--5-----5--------5--------4--------4-----4--|
E|-----------------------3-----3--------3--------------------------5-----5--------5-----|

ends with
E|-----------------------------------3---|
B|-----------------------------------3---|
G|-----------0-----------------------0---|
D|-----2--------2-----2-----------0--0---|
A|--3-----3--------3--------2--------2---|
E|-----------------------3-----3-----3---|


Chorus - Listen for timing
E|-----------------|
B|--2-------1---3--|
G|--2-------0---0--|
D|--2---2---2---4--|
A|------2---3---5--|
E|-----------------|

ends with
E|-----------|
B|-----------|
G|--6---11---|
D|--7---12---|
A|--7---12---|
E|--5---10---|
Tap to rate this tab
 
# A B C D E F G H I J K L M N O P Q R S T U V W X Y Z