Foo Fighters - Dear Rosemary tab

Intro
e----------------------------------|
B------3---------3-----3---------3-|
G----4---4-----4-----4---4-----4---|
D--4-------4-2-----0-------0-2-----|
A----------------------------------|
E----------------------------------|

Intro Lead & Chorus Lead
e---------------------------------------------------------|
B---------------------------------------------------------|
G--11/9--9/7--7/6--6/7--7/6--6/4--4-2---4--6-6--7-7--9-9--|
D---------------------------------------------------------|
A---------------------------------------------------------|
E---------------------------------------------------------|

e---------------------------------------|
B---------------------------------------|
G--11/9--9/7--7/6--6/7--7/6--6/4--4-2---|
D---------------------------------------|
A---------------------------------------|
E---------------------------------------|

--------------------------------------------|
----------------------------12--------------|
---4--6-6--7-7--9-9--14-11------11--9br7-9--|
--------------------------------------------|
--------------------------------------------|
--------------------------------------------|


Intro Rhythm & Chorus
e----------------------------------|
B----------------------------------|
G--4-4-4-4-4-----------------------|
D--4-4-4-4-4-7-7-7-5-5-5-5-5-7-7-7-|
A--2-2-2-2-2-7-7-7-5-5-5-5-5-7-7-7-|
E------------5-5-5-3-3-3-3-3-5-5-5-|

Verse Rhythm 1
e-------------------------------------------------------------|
B-------------------------2-----------------------------------|
G-----4-------------4-----2-------4-------------4-------------|
D-----------2---------------------------2------------2-2-2-2--|
A--2----2-0-0--0--------0----0-2----2-0-0--0---------2-2-2-2--|
E----------------3----3----------------------3----3--0-0-0-0--|

Verse Rhythm 2         x3
e-----------------------:--------------------------|
B--7--7-5--5-3--3-5--7--:--7--7-5--5-3--3----------|
G--7--7-6--6-4--4-6--9--:--7--7-6--6-4--4-9-9-9-9--|
D--9--9-7--7-5--5-7--9--:--9--9-7--7-5--5-9-9-9-9--|
A-----------------------:-----------------7-7-7-7--|
E-----------------------:--------------------------|

Verse Lead
e---------------------------------|
B---------------------------------|
G---------------------------------|
D-------4-2-----------5-2---------|
A--2--5-----4--0----5-----4-0-----|
E----------------3------------7\--|


"Shall I go on...."
e------------------------------------------------|
B------------------------------------------------|
G--4--4-2--2-4--4-2--2-4--4-2--2-4-4-4-4-4-4-4-4-|
D--4--4-2--2-4--4-2--2-4--4-2--2-4-4-4-4-4-4-4-4-|
A--2--2-0--0-2--2-0--0-2--2-0--0-2-2-2-2-2-2-2-2-|
E------------------------------------------------|

Pre-Chorus & Bridge

G   A   Bm  A
Tap to rate this tab
 
# A B C D E F G H I J K L M N O P Q R S T U V W X Y Z