Foo Fighters - Bridge Burning tab

-------------------------------------------------------------------------------
			     Bridge Burning - Foo Fighters
-------------------------------------------------------------------------------
Tabbed by: Torge Santjer
Email: torge.santjer@gmail.com

Tuning: Standard [E]


This is my tab for the new Foo Fighters Song "Bridge Burning", the first track on 
their new Album "Wasting Light"!

Intro

e|---------------------------------------------------------------------------|
B|---------------------------------------------------------------------------|
G|---------------------------------------------------------------------------|
D|---------------------------------------------------------------------------| 8x
A|--5-7---5-7---5-7---5-7---5-7---5-7----------------------------------------|
E|------------------------------0-----0--------------------------------------|


Verse

e|--x-x---x-x-x---x-x-x---x-x-x---0---x-x-x-x--x-x-x-x--x-x-x-x--x-x-x-x-----|
B|--x-x---x-x-x---x-x-x---x-x-x---0---x-x-x-x--x-x-x-x--x-x-x-x--x-x-x-x-----|
G|--9-9---9-8-8---8-7-7---7-6-6---0---5-5-5-5--x-x-x-x--x-x-x-x--7-7-7-7-----|
D|--9-9---9-8-8---8-7-7---7-6-6---0---5-5-5-5--5-5-5-5--7-7-7-7--7-7-7-7-----| 2x
A|--7-7---7-6-6---6-5-5---5-4-4---0---3-3-3-3--5-5-5-5--7-7-7-7--5-5-5-5-----|
E|--x-x---x-x-x---x-x-x---x-x-x---0---x-x-x-x--3-3-3-3--5-5-5-5--x-x-x-x-----|


Verse

e|---------------------------------------------------------------------------|
B|---------------------------------------------------------------------------|
G|---------------------------------------------------------------------------|
D|------5--------5--------5--------5--------5--------5--------5--------5-----| 8x
A|--7-7---7--6-6---6--5-5---5--4-4---4--3-3---3--------------------5-5---5---|
E|-----------------------------------------------3-3---3--5-5---5------------|


Prechorus

e|--x---x---x---x-x----------------------------------------------------------|
B|--x---x---x---x-x----------------------------------------------------------|
G|--5---x---5---7-8----------------------------------------------------------|
D|--5---7---5---7-8----------------------------------------------------------|
A|--3---7---3---5-6----------------------------------------------------------|
E|--x---5---x---x-x----------------------------------------------------------|


Chorus

e|--x---x---x---x---x---x------x---x---x---x---x---x---x---x------x------x---|
B|--x---x---x---x---x---x------x---x---x---x---x---x---x---x------x------x---|
G|--9---7---5---1---5---1------9---7---5---1---5---1---5---1------7------9---|
D|--9---7---5---2---5---2------9---7---5---2---5---2---5---2------7------9---|
A|--7---5---3---2---3---2------7---5---3---2---3---2---3---2------5------7---|
E|--x---x---x---0---x---0------x---x---x---0---x---0---x---0------x------x---|


Bridge

e|---------------------------------------------------------------------------|
B|---------------------------------------------------------------------------|
G|---------------------------------------------------------------------------|
D|---------------------------------------------------------------------------| 2x
A|--5-7---5-7---5-7---5-7---5-7---5-7----------------------------------------|
E|------------------------------0-----0--------------------------------------|


Verse

e|---------------------------------------------------------------------------|
B|---------------------------------------------------------------------------|
G|---------------------------------------------------------------------------|
D|------5--------5--------5--------5--------5--------5--------5--------5-----| 2x
A|--7-7---7--6-6---6--5-5---5--4-4---4--3-3---3--------------------5-5---5---|
E|-----------------------------------------------3-3---3--5-5---5------------|


Verse

e|--x--x--x--x----x--x--x--x-------------------------------------------------|
B|--x--x--x--x----x--x--x--x-------------------------------------------------|
G|--9--8--7--6----5--x--x--7-------------------------------------------------|
D|--9--8--7--6----5--5--7--7-------------------------------------------------| 2x
A|--7--6--5--4----3--5--7--5-------------------------------------------------|
E|--x--x--x--x----x--3--5--x-------------------------------------------------|


Prechorus

e|--x---x---x---x-x----------------------------------------------------------|
B|--x---x---x---x-x----------------------------------------------------------|
G|--5---x---5---7-8----------------------------------------------------------|
D|--5---7---5---7-8----------------------------------------------------------|
A|--3---7---3---5-6----------------------------------------------------------|
E|--x---5---x---x-x----------------------------------------------------------|


Chorus

e|--x---x---x---x---x---x------x---x---x---x---x---x---x---x------x------x---|
B|--x---x---x---x---x---x------x---x---x---x---x---x---x---x------x------x---|
G|--9---7---5---1---5---1------9---7---5---1---5---1---5---1------7------9---|
D|--9---7---5---2---5---2------9---7---5---2---5---2---5---2------7------9---|
A|--7---5---3---2---3---2------7---5---3---2---3---2---3---2------5------7---|
E|--x---x---x---0---x---0------x---x---x---0---x---0---x---0------x------x---|


Solo 

e|--x---x---x---x--x---------------------------------------------------------|
B|--x---x---x---x--x------------------12-----10------8-----10-----11-----12--|
G|--9---7---5---7--8------------------14b----12b----10b----12b----13b----14b-|
D|--9---7---5---7--8---------------------------------------------------------| 2x
A|--7---5---3---5--6---------------------------------------------------------|
E|--x---x---x---x--x---------------------------------------------------------|


Bridge

e|---------------------------------------------------------------------------|
B|---------------------------------------------------------------------------|
G|---------------------------------------------------------------------------|
D|---------------------------------------------------------------------------| 
A|--5-7---5-7---5-7---5-7---5-7---5-7----------------------------------------|
E|------------------------------0-----0--------------------------------------|


Chorus

e|--x---x---x---x---x---x----------------------------------------------------|
B|--x---x---x---x---x---x----------------------------------------------------|
G|--9---7---5---1---5---1----------------------------------------------------|
D|--9---7---5---2---5---2----------------------------------------------------| 2x
A|--7---5---3---2---3---2----------------------------------------------------|
E|--x---x---x---0---x---0----------------------------------------------------|

e|--x---x---x---x---x---x------x---x---x---x---x---x---x---x------x------x---|
B|--x---x---x---x---x---x------x---x---x---x---x---x---x---x------x------x---|
G|--9---7---5---1---5---1------9---7---5---1---5---1---5---1------7------9---|
D|--9---7---5---2---5---2------9---7---5---2---5---2---5---2------7------9---|
A|--7---5---3---2---3---2------7---5---3---2---3---2---3---2------5------7---|
E|--x---x---x---0---x---0------x---x---x---0---x---0---x---0------x------x---|


Outro [at the third time keep the (5-7) a few times longer]

e|---------------------------------------------------------------------------|
B|---------------------------------------------------------------------------|
G|---------------------------------------------------------------------------|
D|---------------------------------------------------------------------------| 3x
A|--5-7---5-7---5-7---5-7---5-7---5-7----------------------------------------|
E|------------------------------0-----0--------------------------------------|


************************************

| /   slide up
| \   slide down
| h   hammer-on
| p   pull-off
| ~   vibrato
| +   harmonic
| x   Mute note
| b   Bend
| pb  Pre-bend
| br  Bend release
| pbr Pre-bend release
| brb Bend release bend

************************************
Tap to rate this tab
 
# A B C D E F G H I J K L M N O P Q R S T U V W X Y Z