Foo Fighters - These Days tab

-------------------------------------------------------------------------------
			     Foo Fighters - These Days
-------------------------------------------------------------------------------
Tabbed by: Jay
Email: james_wright30@hotmail.com

Tuning: Standard EADGBE

Brilliant new tune from the Foo's. Inspired me to do my first tab! I know I've put it as chords,
but the first minute or so of the song has picking parts which I have tabbed first. I've 
put the chords for it at the bottom.
Hope you enjoy. Any comments or feedback welcome.

Intro

e|---------------------------------------------------------------------------|
B|---------------------------------------------------------------------------|
G|---------------------------------------------------------------------------|
D|--------------11------------------11----------------0---------------0------|
A|----------12-----------------12-----------------12--------------12---------|
E|-------12----------------12-----------------12--------------12-------------|

Reapeat this throughout the whole intro.

When the change comes in (when Dave sings, 'But it's alright'), play this:

e|---------------------------------------------------------------------------|
B|---------------------------------------------------------------------------|
G|-----------------0---------------------------------------------------------|
D|-------------2--------2-------2--------------0-----------------------------|
A|----------3---------------3--------------2-------2--------2----------------|
E|-------------------------------------3----------------3--------------------|



e|---------------------------------------------------------------------------|
B|---------------------------------------------------------------------------|
G|--------------0----------------------------0-------------------------------|
D|-----------4-----4------4---------------2------2---------------------------|
A|--------5------------5---------------0------------0------------------------|
E|---------------------------------------------------------------------------|



e|-----------------------------------------------------------------------------|
B|-----------------------------------------------------------------------------|
G|-----------------0-----------------------------------------------------------|
D|-------------2--------2-------2--------------0-----------------------0--0----|
A|----------3---------------3--------------2-------2--------2----------2--2----|
E|-------------------------------------3----------------3--------------3--3----|
|


Chorus

                 A  Asus2                               Em
Easy for you to say.......your heart has never been broken

                             C                     D
Your pride has never been stolen.....not yet, not yet


The chorus repeats again, with different lyrics obviously but the same chord structure.

At about 3mins 40secs in, the song goes back to the same picking part as the beginning. 
And there we have it!

Play around with the chords a bit too. C and Em chords always sound nice with an add9 or 
add11. I like to change the C chord to a Cmaj7add9.
Sounds complex, but it's just moving your index finger on the B string from a regular C 
shape up two frets, leaving the other fingers where they are.

Have fun, hope this has been helpful.

Jay
Tap to rate this tab
 
# A B C D E F G H I J K L M N O P Q R S T U V W X Y Z